Acordes de Guitarra » H »Héroes del Silencio » Flor de Loto (Tab)

Flor de Loto
Héroes del Silencio

Letras, Acordes y Tabs para Guitarra, Bajo y Ukulele

  • Intro: F#m  -   A 
    
    
    1)Fm#                             A        F#m
       Nunca fue tan breve una despedida,
                             A         F#m
    nunca me crei que fuera definitiva,
                                A       F#m      
    nunca quise tanto a nadie en mi vida,
                            A          F#m
    nunca a un ser extra~o  le llame mi familia,
                      A      F#m
    nunca tuve fe  en mi filosofia,
                      A         F#m
    nunca tuve yo  ni guru ni guia,
                           A          F#m
    nunca desprecie una causa perdida,
                         A
    nunca negare que son mis favoritas,
    
    
  •    F#m                             A
    E |-------------0-------------0----||------------5-------------5-----|
    B |----2-------------2-------------||--------------------------------|
    G |------2-------------2-----------||------6---------6---------------|
    D |--------4-------------4---------||--------7-7-------7--7----------|
    A |----------4-------------4-------||---------7----------7-----------|
    E |0-2-------------0---------------||-0-5----------5-----------------|
    
    1 Verse
    F#m                                A
    Nunca fue tan breve una despedida
                                       F#m
    nunca me crei que fuera definitiva
                                      A
    nunca quise a nadie en la vida
                                       F#m               A   A   A  A  5th Fret
    nunca a un ser extraÏo le llame mi familia
    
    
    2 Verse
    
  • GUITARRA 1
    
    
                                                                      
    -----------2--------------2-----|-----------2--------------2-----|
    -----2-------2------2-------2---|-----2-------2------2-------2---|
    -------2-------2------2-------2-|-------2-------2------2-------2-|
    ---------4--------------4-------|---------4--------------4-------|
    --------------------------------|--------------------------------|
    --2--------------2--------------|--2--------------2--------------|
    
    
                                                                      
    -----------0--------------0-----|-----------0--------------0-----|
    -----2-------2------2-------2---|-----2-------2------2-------2---|
    -------2-------2------2-------2-|-------2-------2------2-------2-|
    ---------2--------------2-------|---------2--------------2-------|
    --0--------------0--------------|--0--------------0--------------|
    --------------------------------|--------------------------------|
    
    
                            
  • Coro A1
    I--------------------------I--------------------------I
    I--------------------------I--------------------------I
    I--------------------------I--------------------------I
    I--3----3--3----3--3--3----I--5----5--5----5--5--5----I
    I--3----3--3----3--3--3----I--5----5--5----5--5--5----I
    I--1----1--1----1--1--1----I--3----3--3----3--3--3----I
    
    
    I------------------------------I--------------------------------I
    I------------------------------I--------------------------------I
    I------------------------------I--------------------------------I
    I--7-x-x-7-x-x-7-5---7--5------I--7-x-x-7-x-x-7-5---7--5--7-----I
    I--7-x-x-7-x-x-----7-------7---I--7-x-x-7-x-x-----7----------5--I
    I------------------------------I--------------------------------I
    
    
    
    I--------------------------I--------------------------I
    I--------------------------I--------------------------I
    
  • esta es la parte de la guitarra dist. del coro y el solo
    pongan atencion en que momento entra
    
    
    
    primer puente
    
    
    esta es mi flor de loto....
    -------------------------------|-------------------------------|
    -------------------------------|-------------------------------|
    -------------------------------|-------------------------------|
    --7--x-x-7--x-x-7h5---7--7h5---|--7--x-x-7--x-x-7h5---7--7h5---|
    --7--x-x-7--x-x-----7--------7-|--7--x-x-7--x-x-----7--------7-|
    --5------5---------------------|--5------5---------------------|
    
    
                                                                     
    -------------------------------|--------------------------------|
    -------------------------------|--------------------------------|
    -------------------------------|--------------------------4/5-7-|
    --7--x-x-7--x-x-7h5---7--7h5---|--7--x-x-7--x-x-7h5---5-7-------|
    --7--x-x-7--x-x-----7--------7-|--7--x-x-7--x-x-----7-----------|
    --5------5---------------------|--5------5------
  • Intro
    =====
    
    G|-----------------------------|
    D|-----------------------------|
    A|-----------------------------|
    E|---------2/5-----------------|
    
    1 Verse
    
    Nunca fue tan breve una despedida
    G|----------------------------------------------------------------------------|
    D|--------------------------------------------------------4/7-----------------|
    A|------------------------------------------------------------------------8/9-|
    E|----------------------------------------------------------------------------|
    
    nunca me crei que fue___ra de_finitiva
    G|----------------------------------------------------------------------------|
    D|---------------------------------------------4/7----------4/7---------------|
    A|---------------------------------8/9------------8/9-------------------------|
    E|----------------------------------------------------------------------------|
    
    nunca quise tanto a nadie en mi  la vida
    G|----------------------------------------------------------------
  • Bajo
                                                            
    G||------------------|------------------|-------------------|
    D||------------------|------------------|-------------------|
    A||------------------|------------------|-------------------|
    E||------------------|------------------|----------------0--|
    
    
                                                                
    -------------------|--2----------------|-------------------|
    -------------------|-------------------|-------------------|
    -------------------|-------------------|----------------2--|
    --2----------------|-------------------|-------------------|
    
    
                                                                 
    --------------------|-------------------|-------------------|
    --------------------|-------------------|-------------------|
    --4-----------------|--0----------------|----------------2--|
    -----------------4--|-------------------|-------------------|
    
    
                                                   
  • +
    ¡Colabora con nosotros!
    Envíanos tu versión de esta canción

Letra de Flor de Loto
Nunca fue tan breve una despedida,
nunca me crei que fuera definitiva,
nunca quise tanto a nadie en mi vida,
nunca a un ser extra~o le llame mi familia,
nunca tuve fe en mi filosofia,
nunca tuve yo ni guru ni guia,
nunca desprecie una causa perdida,
nunca negare que son mis favoritas,
2)A
Esta es mi flor de loto
y yo era su sombra,
ésta es mi flor de loto.
mi mundo no se acabará,
tanto vagar para no conservar
nunca nada.
1)nunca una llama permanece encendida,
nunca aguanté su calor, nunca más, nunca más de un día,
nunca soporté ser un alma invadida
hasta que vi frente a mí por quien yo moriría,
2)esta es mi flor de loto
y yo era su sombra,
ésta es mi flor de loto.
mi mundo no se aclarará,
tanto vagar para no conservar
nunca nada...
querras tu rectificar las lineas de mis manos?
¿quien esparcira al azar los posos del cafe?
¿y que decía la bola de cristal cuando echo a rodar?
¿que mas puedo necesitar? ¿tengo algo que perder?
no puedo perder.
flor de loto,flor de loto,
fácil es buscar
(fácil no encontrar)
fácil es buscar
(fácil no encontrar)
3)
las notas:
pero en el coro se rasguea la nota A con traste en el quinto
apretando las cuerdas primera y segunda tienes que llevar el ritmo,
igual la nota C en el tercer traste igual llevar el ritmo.
alguna observación hazmela saber...




[Flor de Loto chords][Flor de Loto cifra]
© LaCuerda.net · aviso legal · privacidad · es · en · pt · contacto