Acordes de Guitarra » H »Héroes del Silencio » Heroe de Leyenda (Tab)

Heroe de Leyenda
Héroes del Silencio

Letras, Acordes y Tabs para Guitarra, Bajo y Ukulele

  • INTRO [ Gm D# D Gm ]
    
                         D#  D
    Siempre en la oscuridad
                        Gm
    la voz no tiene sentido
                       D#  D
    el silencio lo es todo
                          Gm   Bm
    héroe en su propio olvido
    
    
                    Em   Bm
    En sus ojos apagados
                      Em
    hay un eterno castigo
    A
    el héroe de leyenda
    F#                           G     Am F E Am
    pertenece al sueño de un destino
    
  • Intro: Am F E Am
    
    Am                    F
    Siempre en la oscuridad
    E                     Am
    la voz no tiene sentido
    Am              F
    el silencio lo es todo
    E                       Am
    heroe en su propio olvido
    
           ------------
    Bm                G
    En sus ojos apagados
    Bm                 G
    hay un eterno castigo
    A
    el heroe de leyenda
    F#m                           G
    pertenece al sueño de un destino
    
  •    Gm                              D#                                       D
    |---------------------------------|---------------------------------------|-----------------------|
    |---------------------------------|-----------------4----4-----4-----4----|-----------------------|
    |--3-----3-----3------3---3--3--2-|---------------------------------------|-2-----2-----2------2--|
    |-----5-----5------5--------------|-5--3--5---3--5----5-----5-------------|----4-----4------4-----|
    |---------------------------------|---------------------------------------|-----------------------|
    |---------------------------------|---------------------------------------|-----------------------|
    
                           Gm
    |---------------------|----------3---------------------------|
    |---------------------|-------3-----3-----4p3---4p3-----3----|
    |--2--3--2h3p2--------|----3-----------3------3------3-------|
    |----------------5--4-|-5------------------------------------|
    |---------------------|--------------------------------------|
    |---------------------|--------------------------------------|
    
    Verse 1
    
      Gm                                   D# 
      Siem_pre   en__   la_____ oscurida___d
    
  • INTRO
       Gm                  D#                 D
    G|-------------------|-----------------|-------------------|
    D|-------------------|---------8-8-6-5-|-------------------|
    A|----------------1/6|--66--6----------|-5--55--5--56p5—---|
    E|-3--33--3--3-1H3---|-----------------|---------------6p5-|
    
      Gm
     |-------------------|
     |-------------------|
     |-----------------5-|
     |3--33--3--3-1h3/6--|
    
    
      VERSO 1 (...siempre en la oscuridad...)
    
       Gm                  D#                  D
    G|-------------------|-----------------|-------------------|
    D|-------------------|----------88-6-5-|-------------------|
    A|----------------1/6|--66--6--6-------|-5--55--5—56p5-—---|
    E|-3--33--3--3-1H3---|-----------------|---------------6p5-|
    
      Gm
     |-------------------|
     |-------------------|
     |-----------------5-|
     |3--33--3--3-1h3/6--|
    
      (...el silencio lo es todo...)
    
       Gm                  D#                 D
    G|-------------------|-----------------|-------------------|
    D|-------------------|---------8-
  • Dato: Dom, 12 agosto, 9:53:55 AM
    Por: Omar Vidal
    
      Héroe de Leyenda - Bajo
    
    Héroes del Silencio
    Música: P. Andreu, E. Bunbury, J. Cardiel & J. Valdivia
    Álbum: El mar no cesa (1988)
    
    
      INTRO
    
         Gm                       D#                     D 
    G|--------------------------|----------------------|---------------------------|
    D|--------------------------|--------------8-8-6-5-|---------------------------|
    A|--------------------3/5-5-|-6---6-6--6-----------|-5---5-5---5---5--3\1-3-5--|
    E|---3---3-3---3---3--------|----------------------|---------------------------|
                               
       Gm
     |-------------------------|
     |-------------------------|
     |-------------------------|
     |-3---3-3---3--3--6\3-3\1-|
    
    
      VERSO 1 (...siempre en la oscuridad...)
    
         Gm                       D#                    D 
    G|--------------------------|---------------------|----------------------|
    D|--------------------------|---------------8-6-5-|------------------
  • Cancion: Heroe De Leyenda Version Maxi
    Album  : Heroes Del Silencio 1987
    Artista: Heroes Del Silencio
    
    +-=-=-=-=-=-=-=-=-=-=-+
    |      Tablatura      |
    |         De          |
    |       Bateria       |
    | Hologramas.9f.com   |
    +-=-=-=-=-=-=-=-=-=-=-+
    
    Bassdrum - Bd
    Snare - Sn
    China - Ch
    Tom3 - T3
    Tom3 med. - t3
    Floor tom - Ft
    Floor tom med. - ft
    Crash - Cr
    
    Intro..
    __|_1_|_2_|_3_|_4_|_5_|_6_|_7_|_8_|
    Bd|-------------o---o--------------
    Sn|---------o---------------o------
    Hi|-------x-x-x-x-x-x-x-x-x-x-x-x-x
    Ch|-o-o-o--------------------------
                  en sus ojos
    ________________________________________________
    el siguiente es el 2ndo ritmo mayor. Y la 2nda parte
    del Intro. Y en vezes entrara un toce de "China". En el
    intro, siempre sera en el toce "7"
    ________________________________________________
    __|_1_|_2_|_3_|_4_|_5_|_6_|_7_|_8_|
    Bd|-o-----------o---o----------------
    Sn|---------o---------------o-------
    Hi|-x-x-x-x-x-x-x-x-x-x-x-x-x-x-x-x
    apagados,
    hay un eterno castigo
    el heroe 
  • +
    ¡Colabora con nosotros!
    Envíanos tu versión de esta canción
  • Tutorial
    Como tocar heroe de leyenda heroes del silencio
    7:37
  • Tutorial
    Como Tocar el Solo de Heroe de leyenda Parte 2
    7:29
  • Tutorial
    HD
    Como tocar HEROE DE LEYENDA en guitarra - Héroes Del Silencio [Tutorial Somos Posers]
    16:08
  • Tutorial
    HD
    Héroe de Leyenda - Solo (Guitar Cover)
    0:54
  • Tutorial
    como tocar el solo de heroe de leyenda- tutorial-Heroes del Silencio 1ra Parte
    11:30

Letra de Heroe de Leyenda
Siempre en la oscuridad
la voz no tiene sentido
el silencio lo es todo
héroe en su propio olvido
En sus ojos apagados
hay un eterno castigo
el héroe de leyenda
pertenece al sueño de un destino
Encerrado en el tiempo
ha perdido el valor
para escapar de su celda
el héroe sin ilusión
En sus ojos apagados
hay un eterno castigo
el héroe de leyenda
pertenece al sueño de un destino
En sus ojos apagados
hay un eterno castigo
el héroe de leyenda
pertenece al sueño de un destino [2]




[Heroe de Leyenda chords][Heroe de Leyenda cifra]
© LaCuerda.net · aviso legal · privacidad · es · en · pt · contacto