Acordes de Guitarra » H »Héroes del Silencio » Maldito Duende (Tab)

Maldito Duende
Héroes del Silencio

Letras, Acordes y Tabs para Guitarra, Bajo y Ukulele

  • Em
    he oido que la noche
    C
    es toda magia
    D                            Bm
    y que un duende te invita a soñar
             Em
    y se que ultimamente
      C                  D                         Bm
    apenas he parado, y tengo la impresion de divagar.
    
    
        Em
    amanece tan pronto
       G
    y yo estoy tan solo
       D                         Bm
    y no me arrepiento de lo de ayer
                Em
    si, las estrellas te iluminan
    
  • (Bm  F#m)  x2   Bm
    
    Versos.
    
       Em                 C
    He oído que la noche es toda magia
       D                     Bm
    y que un duende invita a soñar
             Em           C
    y sé que últimamente apenas he parado
       D                        Bm
    y tengo la impresión de divagar
       Em                G
    Amanece tan pronto y yo estoy tan solo
        D                          Bm
    que no me arrepiento de lo de ayer
          Em                        G
    Las estrellas te iluminan y te sirven de guía
        D                              Bm
    Te sientes tan fuerte que piensas
    
  • HEROES DEL SILENCIO
    	  	   " MALDITO DUENDE "
    
    Transcripci¢n por ADALBERTO LOPEZ ESCUTIA
    	       MORELIA, MICHOACAN, MEXICO
    INTRO:
    
    FEEDBACK
    
      1 Guitarra con distorsion "ligera", y Chorus
    e|-------------------------------------------------------------|
    B|-------------------------------------------------------------|
    G|-------------------------------------------------------------|
    D|-9-----9---9-----7-----9---9-----9-----9---9-----7-----9---9-|
    A|---9-----9---9-----9-----9---9-----9-----9---9-----9-----9---|
    E|-----7---------7-----7---------7-----7---------7-----7-------|
    
    
    VERSOS:
     2 Guitarras: una "limpia", y otra con CHORUS, sin dist.
    RIFF 1:
    ||-----------------|----------------|-------3--------|-------3--------|
    ||--------8--7-----|-------8--7-----|----------5-3---|----------5-3---|
    ||o-----9------9---|-----9------9---|-----5--------5-|-----5--------5-|
    ||o---9----------9-|---9----------9-|---5------------|---5------------|
    ||--7--------------|-7----------
  •  Bm
                                                                         He oi___
    |------------------------------------------------------------------------------|
    |--4------4-----4------2------4----4-----4-----4----4------2------4-----4------|
    |----4------------4------4-----------4-----4----------4------4------------4----|
    |------2-----2------2------2-----2-----2-----2----2-----2------2-----2------2--|
    |------------------------------------------------------------------------------|
    |------------------------------------------------------------------------------|
    
    Verse 1
      Em                                  C
      DO   que  LA________  no_che______  e__S  toda____  ma_gia_________
    
    |-----------------------------------|------------------------------------|
    |------8--7--------------8--7-------|-------8-7-------------8--7---------|
    |-----------9---9--------------9----|-----9-----9---9-------------9------|
    |---9---------9-------9----------9--|---9---------9-------9----------9---|
    |-7----------------7----------------|------------------------------------|
    |-----------------------------------|-8-----------------8----------------|
    
    
  • esta es la version k creo k es 98% correcta, qalkier cosa me escriben
    
    Intro
    |-----------------|-----------------|
    |-----------------|-----------------|
    |-----------------|-----------------|
    |-9-----9---9-----|-7-----9---9-----|
    |---9---------9---|---9---------9---|
    |-----7---7-----7-|-----7---7-----7-|
    
    |-----------------|-----------------|
    |-----------------|-----------------|
    |-----------------|-----------------|
    |-9-----9---9-----|-7-----9---9-----|
    |---9---------9---|---9---------9---|
    |-----7---7-----7-|-----7---7-----7-|
    
    Verso 1
    |-----------------|-----------------|
    |-------8---7-----|-------8---7-----|
    |-9-----------9-7-|-9-----------9-7-|
    |---9-------------|---9-------------|
    |-----7-----------|-----7-----------|
    |-----------------|-----------------|
    
    |------------------|------------------|
    |--------8---7-----|--------8---7-----|
    |-9------------9-7-|-9------------9-7-|
    |---10-------------|---10-------------|
    |------7-----------|------7-----------|
    |------------------|--------
  • / slide
    
    intro
      4/4  4/4
    G|----|----|------|
    D|----|----|------|
    A|----|----|--/(7)-|
    E|----|----|------|
    
    Verso 1
    Verso 2
    
    1)He oído que la noche Es toda magia
    2)Las distancias se... Pasan rapidas...
    
    G|---------------------------------|
    D|---------------------------------|
    A|--7--77---7--77-----3--33---3--33|
    E|---------------------------------|
    
     Y que un duende te invita a soñar
     Y este cuarto no para de menguar
    G|---------------------------------|
    D|---------------------------------|
    A|--5---55---5---55------52--22----|
    E|---------------------------------|
    
     Y se que últimamente   Apenas he parado
     Y tantas cosas por..   Tanta charla por aquí
    G|--------------------------------------|
    D|--------------------------------------|
    A|2--22--7--77--7--77---3--33---3--33---|
    E|--------------------------------------|
                             
     Y tengo la impresión de divagar.
     Si fuera posible escapar de este lugar
    G|--------------------------------
  • esta cancion es unas de las mejores
    riff 1
    Em                      C
    -----------------------|-----------------------|
    -----------------------|-----------------------|
    7-7-7-7-7-7-7-7-7-7-7-7|3-3-3-3-3-3-3-3-3-3-3-3|
    -----------------------|-----------------------|
    riff 1(continuacion)
    D                       B
    -----------------------|-----------------------|
    -----------------------|-----------------------|
    5-5-5-5-5-5-5-5-5-5-5-5|2-2-2-2-2-2-2-2-2-2-2-2|
    -----------------------|-----------------------|
    riff 2
    Em                      C
    -----------------------|-----------------------|
    -----------------------|-----------------------|
    5-5-5-5-5-5-5-5-5-5-5/-|-3--------2-3-4--------|
    --------------------------3-3-3-3--3-3-3-------|
    riff2(continuacion)
    D                       B
    -----------------------|-----------------------|
    -----------------------|-----------------------|
    5-5-5-5-5-5-5-5-5-5-5-5|2--2-2--2-2-2--22------|
    -----------------------|----------------------
  • HEROES DEL SILENCIO - MALDITO DUENDE
    
    bueno esto es maldito duende
    la rola esta a 4/4 no creo que alla mayor problema
    solo que recomindo practiques mucho los preversos
    ya que si no los ejecutas vien se oye muy mal y ademas
    checa bien los ritmos que usa, por que varia mucho
    y tambien fijate en las acentuaciones.
    
    X: abres los hi hat
    f: flam
    ¬: acentuacion
    
    INTRO:
      +Guitarra                                                     +Voz
    CC|----------------||----------------||----------------||----------------|
    HH|----------------||--x-x-x-x-x-X-X-||--x-x-X-X-X-X-X-||X-X-X-X-X-X-X-X-|
    T1|----------------||----------------||----------------||----------------|
    T2|----------------||----------------||----------------||----------------|
    SD|----------------||----------------||----------------||----------------|
    FT|----------------||----------------||----------------||----------------|
    BD|----------------||----------------||----------------||----------------|
       1===2===3===4==
  • ####
    #### Armoniquista: Enrique Bunbury
    #### Armónica: Diatonica en LA (A)
    #### ----------------------------------------------- 
    #### 
    #### La única versión k tengo de este tema es del Básico
    #### 40. La armónica esta sólamente en la introducción.
    #### Es muy fácil de tocar y haciéndolo suavemente se
    #### logra el clima acústico. Bueno, es corto, ahi va:
    #### 
    
    4+5 (5+6) 5+6 (4+5) 5+6 (5+6)  5+6
    4+5 (5+6) 5+6 (4+5) 5+6
    4+5 (5+6) 5+6 (4+5) 5+6 (4+5)  4+5
    4+5 (5+6) 5+6 (4+5) 5+6 (4+5) (4+5>5+6) 4+5 (4+5)
    
    #### 
    #### Respecto a la notación: notas aspiradas van entre
    #### paréntesis, sin ellos son las sopladas. Si están
    #### con el '+' se tocan juntas y el '>' indica que
    #### tenemos q tocar la nota anterior al signo de mayor
    #### y sin dejar de aspirar, pasar a los otros agujeros
    #### indicados luego. Bueno, cualquier pregunta escriban
    #### a ummo@ciudad.com.ar, chao!
    #### )+(
    ####
  • +
    ¡Colabora con nosotros!
    Envíanos tu versión de esta canción
  • Tutorial
    How to play como tocar MALDITO DUENDE cover heroes del silencio bunbury
    1:57
  • Tutorial
    Maldito Duende - Heroes del silencio-Bunbury - Como tocar en guitarra
    5:10

Letra de Maldito Duende
he oido que la noche
es toda magia
y que un duende te invita a soñar
y se que ultimamente
apenas he parado, y tengo la impresion de divagar.
amanece tan pronto
y yo estoy tan solo
y no me arrepiento de lo de ayer
si, las estrellas te iluminan
y te sirven de guia
te sientes tan fuerte que piensas
que nadie te puede tocar
las distancias se hacen cortas
pasan rapidas las horas
y este cuarto no para de menguar
y tantas cosas por decir
tanta charla por aqui
si fuera posible escapar de este lugar
amanece tan pronto
y yo estoy tan solo
y no me arrepiento de lo de ayer
si, las estrellas te iluminan
y te sirven de guia
te sientes tan fuerte que piensas
que nadie te puede tocar
dedicada a mi novia con mucho cariño te amo




[Maldito Duende chords][Maldito Duende cifra]
© LaCuerda.net · aviso legal · privacidad · es · en · pt · contacto