Acordes de Guitarra » H »Héroes del Silencio » la Sirena Varada (Tab)

la Sirena Varada
Héroes del Silencio

Letras, Acordes y Tabs para Guitarra, Bajo y Ukulele

  • INTRO [ G#m  F#  E  F#  E ]
    
    G#m       
    Y me he enredado siempre entre algas  
    F#                     G#m  
    mara~a contra los dedos
    
    cierras la madeja  
        F#       
    con el fastidio del destino   
             E    
    y el mordisco lo dan otros 
       G#m  
    encias ensangrentadas,
         E   
    miradas de criminales  
        F#                         G#m   
    a grandes rasgos, podrias ser tu.   
    
    
    
  • F#m
      y me he enredado siempre entre algas,
    E
      maraña contra los dedos.
    F#m
      cierras la madeja
    E
      con el fastidio del destino,
             D
    y el mordisco lo dan otros
      F#m
    encías ensangrentadas,
        D                      E
    miradas de criminales, a grandes rasgos,
             F#m
    podrías ser tú.
    
    F#m
    Echar el ancla a babor
         E
    
  •  F#m                                        E
    |-----------------------------------------------------------------------|
    |-----------------------------------------------------------------------|
    |-11-11p9---9-11-11--11p9---9-11-11--11p9---9---------------------------|
    |---------11--------------11-------------11---9-/-7-/-6-----------------|
    |-------------------------------------------------------7---------------|
    |----------------------------------------------------------7-----0------|
                                                                       
     F#m                                  E
    |--------------------------------------------------------------------|
    |-10-10p9p7-9-10-/-12--10p9h10p9--------------9-9----9---------------|
    |---------------------------------11--11p9----9-9----9---------------|
    |------------------------------------------11------------------------|
    |--------------------------------------------------------------------|
    |--------------------------------------------------------------------|
                                                                
     
      D                                                    F#m  A
    |--------------¦-14--¦-14--¦-14------------------------17---¦----------\|
    |-----14--17--17----17----17---------17p14-17-14-----------17-----------|
    
  •     F*m  
      e---------------------------------------------
      B---------------------------------------------
      G-11-11/9---9-11--11-11-11/9---9-11-11-11-11--
      D---------11-----------------11---------------
      A---------------------------------------------
      E---------------------------------------------
       
        E                   F*m 
      e------------------------------------------------------------
      B---------------------10-10/9---9-10-12-10---10-9------------
      G-----------------------------11-----------11-----11-11------
      D-9-7-6------------------------------------------------------
      A--------7---------------------------------------------------
      E-----------7--0---------------------------------------------
    
        E              D 
      e------------------------------------------------------------
      B-9-9-------------------------10-12---10-12/13(13)-13(13)-13-
      G-9-9-----9-11-9p11-9p11-9p11-------9------------------------
    
  •   (F#m)                                 (A)
    |--------------------------------------|--------------------------------|
    |--------------------------------------|--------------------------5-----|
    |--------6--------7--6-------------6---|-------6-------7-6------6---6---|
    |---4-4-----4--4-------4--4-6--6h7---7-|----7-----7-7-------7-7-------7-|
    |--------------------------------------|--------------------------------|
    |--------------------------------------|-5------------------------------|
     w/flanger.
    
      (D)                (E)                (D)      End Rhy.Fig 1
    |--------------------|-----------------|----(5)--(5)-5---5---|
    |--------------------|-----------------|-----5----5--5---5---|
    |--------6--4--6-----|------9-----9----|-----7----7--7---7---|
    |-----7-----------7--|---9-----9-----9-|-----7----7-(7)------|
    |--5-----------------|7----------------|-5-------------------|
    |--------------------|-----------------|---------------------|
    
     F#m                                       E
     Y me he enredado siempre entre al--gas, maraña contra los dedo-----s,
    |------------------0------------0---------|0--------0----------------0--|
    
  •  G#m
    e|-------------------------------------------|
    b|-------------------------------------------|
    g|------8------9-8-------------8-------------|
    d|--6-6---6--6------6--6-8-8\9---9-----------|
    a|-------------------------------------------|
    e|-------------------------------------------|
    
      B                            E
    e|----------------------------|---------------------|
    b|----------------------7-----|---------------------|
    g|-----8------9-8-----8---8---|------8--6--8--------|
    d|---9---9-9------9-9-------9-|----9----------9-----|
    a|----------------------------|--7------------------|
    e|-7--------------------------|---------------------|
    
      F#                   E
    e|--------------------|----7--7--7--7--|
    b|--------------------|----7--7--7--7--|
    g|------11-----11-----|----9--9--9--9--|
    
  • Guitarra
                                                                          
    E||------0-------1-0-----0------0---|------0-------1-0----------3-0--|
    B||------------------------0--1---1-|----------------------0-1-------|
    G||----2---2---2-------2------------|----0---0---0-------2-----------|
    D||---------------------------------|--------------------------------|
    A||--0-------0-------0--------------|--------------------------------|
    E||---------------------------------|--3-------3-------3-------------|
    
    
                                                                         
    ------0----0--------3----3----|--------8------8-8--8--8--8--8-------|
    --------3----1----0---3----3--|------1-6------6-8---------------0---|
    ----2-----------0-------------|----2----------5----10-10-10-10--12--|
    --3---------------------------|--3--------------10-10-10-10-10--12--|
    ------------------------------|---------------------------------10--|
    ------------------------------|-------------------------
  • ESTRUCTURA:
    
    1.-INTRO             
    2.-VERSO 1 Y 2
    3.-CORO
    4.-VERSO 3
    5.-INTRO
    6.-INTERMEDIO
    7.-SOLO
    8.-INTRO
    9.-CORO
    10.-FINAL
    LIGADO *
    
    
    Intro:       (F#)                       (A)                      (D)         (E)         (D)
    
    G ----------------------------------------------------------------------------------------
    D ----------------------------------------------------------------------------------------
    A-----------------------------------------------------5-----------7---------5-------5---
    E -----------2-------------------5-*--7--*-5-5-------------------------------------------
    
    
     VERSOS 1 , 2 y 3
    
          F#                                                                              E                                       
    G -----------------------------------------------------------------------------------------------------------                                  
    D --------------------------------------------------------------------------------------
  • +
    ¡Colabora con nosotros!
    Envíanos tu versión de esta canción

Letra de la Sirena Varada
Y me he enredado siempre entre algas
mara~a contra los dedos
cierras la madeja
con el fastidio del destino
y el mordisco lo dan otros
encias ensangrentadas,
miradas de criminales
a grandes rasgos, podrias ser tu.
Echar el ancla a babor
y de un extremo la argolla
y del otro tu corazón,
mientras tanto, te sangra.
y el mendigo siempre a tu lado,
tu compañero de viaje,
cuando las estrellas se apaguen,
tarde o temprano,
tambien vendras tu.
Duerme un poco mas,
los parpados no aguantan ya,
luego estan las decepciones
cuando el cierzo no parece perdonar
Sirena vuelve al mar,
varada por la realidad,
sufrir alucinaciones
cuando el cielo no parece escuchar.
Dedicarte un sue~o
cerrar los ojos y sentir oscuridad
inmensa, entregado a una luz
como un laberinto de incertidumbre
esquivas la pesadilla
y sobrevolar el cansancio, y en
un instante, en tierra otra vez.
el miedo a traspasar la frontera
de los nombres, como un extra~o
dibuja la espiral de la derrota
y oscurece tantos halagos.
Duerme un poco mas,
los parpados no aguantan ya,
luego estan las decepciones
cuando el cierzo no parece perdonar
Sirena vuelve al mar,
varada por la realidad,
sufrir alucinaciones
cuando el cielo no parece escuchar.
uh, uuuh, uuuh.




[la Sirena Varada chords][la Sirena Varada cifra]
© LaCuerda.net · aviso legal · privacidad · es · en · pt · contacto