Acordes de Guitarra » H »Héroes del Silencio » Entre dos tierras (Tab)

Entre dos tierras
Héroes del Silencio

  • Letra y Acordes
    Bm G Bm A
    Bm  F#m  Em  G
    
            Bm     F#m
    1. Te puedes vender,
    Em           G
    cualquier  ofertas buena
       Bm       F#m      Em  G
    si quieres poder.       ooohhh
    
       Bm  F#m
    I Que facil es,
    Em       G
    abir tanto la boca
    
    Bm   F#m  Em        GGG
    para opinar            y si te piensas em
     Bm   F#m
    char atras
      Em            G          Bm   F#m
    
  • Tablatura
          Bm
    E |---7---------|
    B |---7---------|
    G |---7---------|
    D |---9---------|
    A |---9---------|
    E |---7---------|
    
    
    
    Ahora golpea hacia abajo, hacia arriba y otra vez hacia abajo en
    cada Bm, pero tb he visto a Valdiviaen algún video hacerlo solo
    hacia abajo, eso queda a tu elección.
    
    
          Bm
    E |---7------------------|---7------------------|
    B |---7------------------|---7------------------|
    G |---7------------------|---7------------------|
    D |---9------------------|---9------------------|
    
  • Tablatura
    Héroes del Silencio
    Entre dos Tierras (solo)
    
    -------------|-------------|---------2h3p2-------------|----------------------
    -------3-----|-------5-----|-------5-------5-3-2h3p2---|----------------------
    ---4-----4---|---2-----2---|---4---------------------3-|----------------------
    -4---4-----4-|-4---4-----4-|-2---2---------------------|----------------------
    -------------|-------------|---------------------------|----------------------
    -------------|-------------|---------------------------|----------------------
                                                                           
    
    -----------------------|---------------------------|--------------------------
    -------3---3-5b-5p3-5b-|-------5-3p2h3p2h3p2-------|--------------------------
    ---4-----4-------------|---4-----------------4-----|--------------------------
    -4---4-----------------|-2---2-----------------4---|--------------------------
    -----------------------|-------------------------2-|-----------------------
  • Tablatura
       Bm                     G        Bm          A        Bm
    
    e|-2------2-|----|-2------3-|2------2-|-2------5-|-2--2--2---2-|
    B|-3------3-|----|-3------3-|3------3-|-3------5-|-3--3--3---3-|
    G|-4------4-|----|-4------0-|4------4-|-4------2-|-4--4--4---4-|
    D|-4------4-|----|-4------0-|4------4-|-4------2-|-4--4--4---4-|
    A|----------|----|----------|---------|----------|-------------|
    E|----------|----|----------|---------|----------|-------------|
    
                                G                  Bm
    
    e|---2--2--2----|-2--2--2---3-|---3--3--3--3-|-2--2--2---2-|---2--2--2--|
    B|---3--3--3----|-3--3--3---3-|---3--3--3--3-|-3--3--3---3-|---3--3--3--|
    G|---4--4--4----|-4--4--4---0-|---0--0--0--0-|-4--4--4---4-|---4--4--4--|
    D|---4--4--4----|-4--4--4---0-|---0--0--0--0-|-4--4--4---4-|---4--4--4--|
    A|--------------|-------------|--------------|-------------|------------|
    E|--------------|-------------|--------------|-------------|------------|
    
                      A5
    
    
  • Tablatura
    B:I-------------I-------------I-----------8-7h8p7---------I
    G:I-------7-----I-------9-----I-------9-----------9---7---I
    D:I---9-----9---I---7-----7---I---7-----------------9---9-I
    A:I-9---9-----9-I-9---9-----9-I-9---9---------------------I
    E:I-------------I-------------I---------------------------I
    
    e:I-------------------------I-------------------------I
    B:I-------------------------I-------------------------I
    G:I-------7---7-9b11r9p7-9~-I-----6-9--7-6-7-6h7------I
    D:I---9-----9---------------I---7----------------9----I
    A:I-9---9-------------------I-9--------------------9~-I
    E:I-------------------------I-------------------------I
    
    e:I-----------------I-----------------I-----------------I-----------------I
    B:I-----------------I-----------------I-----------------I-----------------I
    G:I-4-4-4-4-4-4-4-4-I-2-2-2-2-2-2-2-2-I-----------------I-4-4-4-4-4-4-4-4-I
    D:I-4-4-4-4-4-4-4-4-I-2-2-2-2-2-2-2-2-I-5-5-5-5-4-4-4-4-I-4-4-4-4-4-4-4-4-I
    A:I-2-2-2-2-2-2-2-2-I-0-0-0-0-0-0-0-0-I-5-5-5-5-4-4-4-4-I-2-2-2-2-2-2-2-2-I
    E:I-----------------I-----------------I-3-3-3-3-2-2-2-2-I-----------------I
    
    
  • Tablatura
          Bm
    E |---7---------|
    B |---7---------|
    G |---7---------|
    D |---9---------|
    A |---9---------|
    E |---7---------|
    
    Luego...
          Bm
    E |---7----------|---7----------|
    B |---7----------|---7----------|
    G |---7----------|---7----------|
    D |---9----------|---9----------|
    A |---9----------|---9----------|
    E |---7----------|---7----------|
    
          Bm             G
    E |---7----------|---3----------|
    B |---7----------|---3----------|
    
  • Tab p/Bajo
    intro:
    G:-----------------------------------
    D:-----------------------------------
    A:2-2-2-2-2-2-2-2-2-2-2-2-2----------
    E:--------------------------3-3-3-3-3
    
    G:---------------------------------------
    D:---------------------------------------
    A:2-2-2-2-2-2-2-2-2-2-2-2-2-0-0-0-0-0-5-4
    E:---------------------------------------
    (se hace 2 veces)
    verso 1:
    
    G:----------------------------------------------
    D:----------------------------------------------
    A:2-2-2-2-2-2-2-2-2-----------------------------
    E:-----------------2-2-2-2-2-2-2-2-0-0-0-0-0-0-0
    
    G:--------------------|-------------------------------
    D:--------------------|------------------4-4-4-4-4-4-4
    A:-----------------5-4|-2-2-2-2-2-2-2-2-2-------------
    E:3-3-3-3-3-3-3-3-3---|-------------------------------
    
    G:---------------------------------------|
    D:2-2-2-2-2-2-2-2-5-5-5-5-5-5-5-5-5-5----|
    A:------------------------------------5-4|
    E:---------------------------------------|
    (lo que esta entre las lineas se repite hasta el coro)
  • Batería
    NO ESTA DIFICIL, TENGAN PACIENCIA.
    
    ATTE: CHRISTIAN
    
    
    
    
    
    C||------|------|------|------|------|------|--36--38--36--38--36--38--36--38--|
    C||------|------|------|------|------|------|------42------42------42------42--|
    C||------|------|------|------|------|------|----------------------------------|
    C||------|------|------|------|------|------|----------------------------------|
    C||------|------|------|------|------|------|----------------------------------|
    C||------|------|------|------|------|------|----------------------------------|
    
    
    
    --36--38--36--38--36--38--36--38--|--36--38--36--38--36--38--36--38--|
    ------42------42------42------49--|------42------42------42------42--|
    ----------------------------------|----------------------------------|
    ----------------------------------|----------------------------------|
    ----------------------------------|----------------------------------|
    ----------------------------------|----------------------------------|
    
    
    
    
  • +
    ¡Colabora con nosotros!
    Envíanos tu versión de esta canción
  • Tutorial
    Entre dos tierras - Heroes del SIlencio - Bunbury - Como tocar en guitarra
    5:19
  • Tutorial
    Como tocar Entre dos tierras, How to play Entre Dos Tierras; Héroes del Silencio; Kama Guitar
    9:49

Letra de Entre dos tierras
1. Te puedes vender,
cualquier ofertas buena
si quieres poder. ooohhh
I Que facil es,
abir tanto la boca
para opinar y si te piensas em
char atras
tienes muchas huellas que borrar dddarrr
Hmmmmm:
dejame, que yo no tengo la culpa de verte caer
si yo no tengo la culpa de verte caer.
2. Pierdes la fe,
cualquier esperanza es vana
no se que creer;
ppp- pero olvidame
que nadie te ha amado
y ya estas otra vez
Hmmmmm:
dejame, que yo no tengo la culpa de verte caer
si yo no tengo la culpa de verte que..
Entre dos tierras estas
y no dejas aire que respirar ohoho
Entre dos tierras estas
y no dejas aire que respirar
3. Dejalo ya,
no seas membrillo y
permite pasar y si no piensas em
char atras
tienes mucho barro que tragar oohoho
dejame, que yo no tengo la culpa de verte caer
si yo no tengo la culpa de verte que..
Entre....
2x verses ( Bm F#m Em G)
2x verses ( Bm F#m Em G)
dejame, que yo no tengo la culpa de verte caer
si yo no tengo la culpa de verte que..
Entre ......



© LaCuerda.net · aviso legal · privacidad · contacto