Acordes de Guitarra » H »Héroes del Silencio » Deshacer el Mundo (Tab)

Deshacer el Mundo
Héroes del Silencio

Letras, Acordes y Tabs para Guitarra, Bajo y Ukulele

  •             Dm
    Empezar porque si...
                     C
    Y acabar no se cuando..
        A5         
    El azul me da cielo..
         Dm
    y el iris los cambios
                             C
    los astros no estan mas lejos
                               A#
    que los hombres que trato..
                                         Dm
    repito otras voces, que siento como mias
             A#                                  Am
    y se encierran en mi cuerpo, con rumor de mar gruesa...
    
    
    CORO:
                          Dm
    
  •   Bm
    Empezar porque sí...
                    A
    y acabar no sé cuándo..
        Fm
    El azul me da cielo..
         Bm
    y el iris los cambios
                             A
    los astros no están más lejos
             Fm
    que los hombres que trato...
      Bm                                 A
    repito otras voces, que siento como mías
            Bm                                      Fm
    y se encierran en mi cuerpo, con rumor de mar gruesa...
    
    
    CORO:
                          Bm
    
  •            Dm
    Empezar porque si...
                    C
    Y acabar no se cuándo..
        Am
    El azul me da cielo..
         Dm
    y el iris los cambios
                             C
    los astros no están mas lejos
                               A#
    que los hombres que trato..
                                         Dm
    repito otras voces, que siento como mias
            A#                                      Am
    y se encierran en mi cuerpo, con rumor de mar gruesa...
    
    
    CORO:
                          Dm
    
  •           
         A.H.                                              
    E||---------|------------------------|-------------------------|
    B||---------|------------------------|-------------------------|
    G||--5------|---5--5--5--5--5--5--5--|--5--3--2----------------|
    D||---------|------------------------|-----------5--3--2--3~---|
    A||---------|------------------------|-------------------------|
    E||---------|------------------------|-------------------------|
    
    
                                                           
    --------------------------|---------------------------|
    --------------------------|---------------------------|
    --------------------------|-----------5--7--7--7h-5---|
    -------------3--5--5r-5h3-|-----3/-7----------------7-|
    --5~-----3h5--------------|--5------------------------|
    --------------------------|---------------------------|
    
    
                                                                  
    -------------------------|---------8--10--10h8----8----------|
    
  • Deshacer el mundo
    Heroes del silencio
    por: Ramón Zamora
    
    Solo de guitarra
    
    ... mirad mis alas...
    
    E|----------------------------------------------------|------------------------
    A|--------------------------------------------7/8--8--|--5~-3/5--8----------8--
    D|--------------------------------8--7--8--7----------|-------------5--7p5-----
    G|--m5--m5--m5--m5--5--5--5---m5----------------------|------------------------
    B|----------------------------------------------------|------------------------
    e|----------------------------------------------------|------------------------
    
    E|------------------------------|-------------------------------------------------
    A|--5--3--3/5-------------------|-------------------------------------------------
    D|-------------7-------------7--|-----------------7-------------------------------
    G|----------------5--5--7p5-----|--7b9--5b7--7p5-----5--7-------------------------
    B|------------------------------|--------------------------5--6--8/10
  • No tiene Intro comienza en el verso:
    
                      Dm
    G|-------------------------------------
    D|-------------------------------------
    A|--3H5555-3H5555-3H5555-3H5555-3H5555-
    E|-------------------------------------
    
                C
    G|-----------------------
    D|-----------------------
    A|--5H3333-5H3333-5H3333-
    E|-----------------------
    
                A5
    G|-----------------------
    D|-----------------------
    A|-----------------------
    E|--5555-5555H6-5555H6---
    
    
                     Dm
    G|-------------------------------------
    D|-------------------------------------
    A|--3H5555-3H5555-3H5555-3H5555-3H5555-
    E|-------------------------------------
    
    
                 C
    G|-----------------------
    D|-----------------------
    A|--5H3333-5H3333-5H3333-
    E|-----------------------
    
    
                A#
    G|-----------------------
    D|-----------------------
    A|-----------------------
    E|--6666-5H6666-5H6666---
    
    
                      Dm
    G|-------------------------------------
    D|-------------------------------------
    A|--3H5555-3H55
  • ####
    #### Armoniquista: Enrique Bunbury
    #### Armónica: Diatonica en FA (F)
    #### ----------------------------------------------- 
    ####
    #### Es demasiado fácil y para nada complejo... ahi va!
    ####
    
    1>4+5 (3+4) 4+5 (3+4) 4+5 (3+4)
    1>4+5 (3+4) 4+5 (3+4) 4+5 (3+4) (1>2+3)
    (2>3+4)
    
    1>4+5 (3+4) 4+5 (3+4) 4+5 (3+4)
    1>4+5 (3+4) 4+5 (3+4) 4+5 (3+4) (2) 4+5
    (3+4) 3+4 4+5
    
    1>3+4 (2+3) 3+4 (2+3) 3+4 (2+3)
    1>3+4 (2+3) 3+4 (2+3) 3+4 (2+3)
    (1+2) (2+3)
    
    
    ####
    #### Si las notas estan unidas por el mas, es k deben
    #### tocarse juntas. Y las notas encerradas con el '>'
    #### indica k se debe tocar esa nota y sin dejar de
    #### soplar se arrastra o mueve la armónica rápidamente
    #### hacia el agujero siguiente (se entiende, no?).
    #### Escriban a ummo@ciudad.com.ar si hay alguna dudilla.
    #### )+(
    ####
  • +
    ¡Colabora con nosotros!
    Envíanos tu versión de esta canción

Letra de Deshacer el Mundo
Empezar porque si...
Y acabar no se cuando..
El azul me da cielo..
y el iris los cambios
los astros no estan mas lejos
que los hombres que trato..
repito otras voces, que siento como mias
y se encierran en mi cuerpo, con rumor de mar gruesa...
y te he dicho que no mires atras
porque el cielo no es tuyo..
y hay que empezar despacio
a deshacer el mundo....(en el verso se repiten los acordes)
Eh!!!}
(parte despues del segundo coro)
y ponme fuera del alcance del bostezo universal
nos veremos en el exilio, o en una celda
y ponme fuera del reposo, en mi historia personal
soy un ave rapaz, mirad mis alas..
_______________________
arreglos que le meto:
En el verso, estando tocando Dm, le quitas la nota la # (o sea quitas el
2o dedo) y suena con sol. La vas balanceando respecto a la canción.
Tambien en el verso, cuando tocas A#, lo haces A#5 moviendo el 4o dedo
respecto a la cancioón.
En el coro, cuando se toca Dm, se pasa al Dm más agudo (en el 5o traste)
y cuando se toca F, igual, se pasa al Fa agudo (en el 8o tratse).
el requinto comienza así, pero no lo he sacado todo. Si alguien lo saca
bien, aviseme.
(o algo asi)




[Deshacer el Mundo chords][Deshacer el Mundo cifra]
© LaCuerda.net · aviso legal · privacidad · es · en · pt · contacto