Acordes de Guitarra » H »Héroes del Silencio » la Carta (Tab)

la Carta
Héroes del Silencio

Letras, Acordes y Tabs para Guitarra, Bajo y Ukulele

  • LA carta
    héroes del silencio
    senderos de traición
    
    
    [Am F C Em] x2
    
    
    Am      F           C    Em
    no hace mucho que lei tu carta,
           Am     F           C
    y, sin fuerzas para contestar,
          Em                    Am 
    mil pedazos al viento nos separan
           F          C
    pondre casa en un pais
      Em        Am
    lejano para olvidar
    F            C      Em
    este miedo hacia ti, este miedo hacia ti
    
  • e -----------------------12--------12----------13--12---
    B --------------------------10--------10----------------
    G ------------------------------9----------9------------
    D ------------------------------------------------------
    A --0--0--0--0----0--0----------------------------------
    E ------------------------------------------------------
    
    e ----------------------------------------------7-------
    B -------5----5------6----5------5----------------8-----
    G ----5----5-------5----5------5---5---------9----------
    D --7------------3-------------------7-----9------------
    A --------------------------3------------7--------------
    E ------------------------------------------------------
    
    e ------------------------------------------------------
    B -------5----5------6----5------5-------------8--7-----
    G ----5----5-------5----5------5---5---------9------9/--
    D --7------------3-------------------7-----9------------
    A --------------------------3------------7--------------
    E ------------------------------------------------------
    
  •                              L      A   A      C     A   A R   R   T   A   A                      
                                 L      AAAAA      C     AAAAA RRRRR   T   AAAAA                        
                                 L      A   A      C     A   A R  R    T   A   A                    
                                 LLLLL  A   A      CCCCC A   A R   R   T   A   A                
            
                                               HEROES DEL SILENCIO                                                 
    Tablatura:
    Miguel Alejandro Díaz Palmerín
    México
    
    esta es la tablatura de la carta, espero que les guste, la saque lo mas parecido posible, digamos que
    igualita. cualquier comentario o si quieren alguna tablatura de heroes en especial escribanme.
    ya subi la de Sirena varada y la de la Chispa adecuada.
    midipal@df1.telmex.net.mx
    
    
    Intro: 
    |----------------------------|--12----------12---------13---------12-----------|
    |----------------------------|------10----------10---------10---------10-------|
    |----------------------------|----------9-----------9----------9---------------|
    
  • |----------------------------|--12--------12-------13-------12-------|
    |----------------------------|------10--------10-------10-------10---|
    |----------------------------|---------------------------------------|
    |----------------------------|---------------------------------------|
    |-0--0--0--0-----0--0--0-----|---------------------------------------|
    |----------------------------|---------------------------------------|
    
    Riff 1
    
      Am               F                C               Em
    |----------------|---------------|----------------|-----------7-----|
    |----------------|---------------|----------------|---------------8-|
    |-------9------9-|-------10----9-|-------9--------|--------9--------|
    |----9------9----|-----9-----9---|-----9----9-----|-----9-----------|
    |--0-------------|-8-------------|----------------|--7--------------|
    |----------------|---------------|--8-----------8-|-----------------|
    
                                             End Riff 1
      Am                     F                C               Em
    |------------------|----------------|---------------|----------------|
    
  • hola soy kirk hardy esta es mi primer tab a ver k les parece
    
    esta es la intro
    los primeros 4 compases llevan solo la guitarra despues entra asi
    
    G-----------------------------------------------------SE----
    D------------------------------------------------------REPITE
    A---------------------------3--3-3-3-3-3-7--7-7-7-7-7----UNA-
    E-5--5-5-5-5-3-1--0-1-1-1-1-------------------------------VEZ-
    
    ESTA ES LA PRIMERA PARTE
    NO hace mucho que lei...
    
    G-----------------------------------------------------------
    D-----------------------------------------------------------
    A----------------------------3--3----3-5--------------------
    E-5--5-5-5-5-3-1--0-1--1-1-1-------5-----0--0--0--0-3-3-------
    
    G------------------------------------------------------
    D-------------------------------------------------------
    A--------------------------3---3----3-5-----------------
    E-5--5--5-5-3-1---1--1-1-1--------5-----0---0--3--3------
    
    G------------------------------------------------------
    D---------------------
  • Pre-Intro
    C |----------------|----------------|----------------|----------------|
    H |X-x-x-x-x-x-x-x-|x-x-x-xXx-x-x-x-|x-x-x-x-x-x-x-x-|x-x-x-----------|
    T1|----------------|----------------|----------------|------o---------|
    T2|----------------|----------------|----------------|--------oo------|
    S |----o-------o---|----o-------o---|----o-------o---|----o-----------|
    F |----------------|----------------|----------------|-----------o----|
    B |o-------o-------|o-------o-------|o-------o-------|o---------------|
       1 + 2 + 3 + 4 +  1 + 2 + 3 + 4 +  1 + 2 + 3 + 4 +  1 + 2 + 3 + 4 + 
    
    Intro
    C |X---------------|----------------|----------------|----------------|
    H |--x-x-x-x-x-x-x-|x-x-x-x-x-x-x-xX|x-x-x-x-x-x-x-x-|x-x-x-x-x-x-x-xX|
    S |----o-------o---|----o-------o---|----o-------o---|----o-------o---|
    B |o-------o-------|o-------o-------|o-------o-------|o-------o-------|
       1 + 2 + 3 + 4 +  1 + 2 + 3 + 4 +  1 + 2 + 3 + 4 +  1 + 2 + 3 + 4 + 
    
                       |_______2x__
  • +
    ¡Colabora con nosotros!
    Envíanos tu versión de esta canción

Letra de la Carta
héroes del silencio
senderos de traición
no hace mucho que lei tu carta,
y, sin fuerzas para contestar,
mil pedazos al viento nos separan
pondre casa en un pais
lejano para olvidar
este miedo hacia ti, este miedo hacia ti
y no hace mucho que rompi
tu recuerdo pensando
acabar de una vez
pero el tiempo y la distancia
no son todo para mi
siempre hay algo que me hace volver
siempre he escuchado, y ya no te creo
¿porque no te entiendo?
¿por qué estas tan lejos?
siempre he escuchado, y ya no te creo
¿porque no te entiendo?
¿por qué estas tan lejos?
se que siempre he sido asi
y que no tengo remedio,
ni lo quiero tener
pero ni el miedo ni tu cartas
lo son todo para mi
quizas otra vez te echare la culpa a ti
siempre he escuchado, y ya no te creo
¿porque no te entiendo?
¿por qué estas tan lejos?
siempre he escuchado, y ya no te creo
¿porque no te entiendo?
¿por qué estas tan lejos?




[la Carta chords][la Carta cifra]
© LaCuerda.net · aviso legal · privacidad · es · en · pt · contacto