Acordes de Guitarra » F »Fobia » Vivo (Tab)

Vivo
Fobia

Letras, Acordes y Tabs para Guitarra, Bajo y Ukulele

  • D               Bm
    Nos ahogaremos juntos
    D               Bm
    en aguas que todos quieren probar
    D               Bm
    sin importarnos como es el final
    D                 Bm
    no hay otras vidas, tierra nada más..
    
    
    D             Bm
    Caminaremos juntos
    D             Bm
    escaparemos de la realidad
    D              Bm
    si tropezamos no nos dolerá
    D                   Bm            G
    no existen cuerpos, mentes nada mas
          A             F#m
    eres sangre tibia y yo 
    
  • C Am x4
    
    VERSO 1:
    C               Am
    Nos ahogaremos juntos
    C               Am
    en aguas que todos quieren probar
    C               Am
    sin importarnos como es el final
    C                 Am
    no hay otras vidas, tierra nada más..
    
    C Am x2
    
    VERSO 2:
    C             Am
    Caminaremos juntos
    C             Am
    escaparemos de la realidad
    C              Am
    
  • INTRO: C   Am
    
    C               Am
    Nos ahogaremos juntos
    C               Am
    en aguas que todos quieren probar
    C               Am
    sin importarnos como es el final
    C                 Am               
    no hay otras vidas, tierra nada más
    
    
    C             Am
    Caminaremos juntos
    C             Am
    escaparemos de la realidad
    C              Am
    si tropezamos no nos dolerá
    C                   Am            F
    no existen cuerpos, mentes nada mas
    
  • INTRO: C   Am
    
    (Riff) de teclado arreglado para guitarra
    E|----------------------------------------------------------------| 
    D|----------------------------------------------------------------|
    G|--12--12--14--12--12p14------------------------------(2veces)---|
    D|-------------------------14--14--15--14--14--15--14-------------|
    A|-------------------------------------------------------------15-|
    E|----------------------------------------------------------------|
    
    
    C               Am
    Nos ahogaremos juntos
    C               Am
    en aguas que todos quieren probar
    C               Am
    sin importarnos como es el final
    C                 Am               
    no hay otras vidas, tierra nada más
    
    
  • Cm Am x2
    e|---------------------------------|
    B|---------------------------------|
    G|---------------------------------|
    D|---2---2---3---2---5---2-----2---| x2
    A|-3---3---3---3---3---0---0-0---0-|
    E|---------------------------------|
    
    En total (Cm Am) se hace 4 veces en el intro
    
    C               Am
    Nos ahogaremos juntos
    C               Am
    en aguas que todos quieren probar
    C               Am
    sin importarnos como es el final
    C                 Am
    no hay otras vidas, tierra nada más..
    
    Intro (C Am) x2
    
  • e.------------------------------
    B.-8-8-10-8-8h10----------------
    G.------------------10-9---10-9-   (x2)
    D.----------------7------7------ /
    
    C              Am     C                Am
    Nos ahogaremos juntos en aguas que todos quieren probar
    C              Am                C                    Am
    Sin importarnos como es el final, no hay otras vidas, tierra nada más
    
    Guitarra 1: C, Am (x2)
    Guitarra 2:
    e.------------------------------
    B.-8-8-10-8-8h10----------------
    G.------------------10-9---10-9-   (x2)
    D.----------------7------7------ /
    
    C           Am      C           Am
    Caminaremos juntos, escaparemos de la realidad
    C             Am             C                   Am               F
    
  • +
    ¡Colabora con nosotros!
    Envíanos tu versión de esta canción
  • Tutorial
    HD
    Como Tocar VIVO de Fobia en guitarra acustica - tutorial guitarra
    4:20

Letra de Vivo
Nos ahogaremos juntos
en aguas que todos quieren probar
sin importarnos como es el final
no hay otras vidas, tierra nada más..
Caminaremos juntos
escaparemos de la realidad
si tropezamos no nos dolerá
no existen cuerpos, mentes nada mas
eres sangre tibia y yo
me siento vivo
uoo o o o o..
(verso igual)
segundo coro:
....y yo me siento vivo
uoo o o o o
me siento vivo
uoo o o o o
me siento vivo
uoo o o o o
me siento vivo
o o o o
me siento vivo
uoooo o o
(hay que seguir el ritmo de la cancion)




[Vivo chords][Vivo cifra]
© LaCuerda.net · aviso legal · privacidad · es · en · pt · contacto