Acordes de Guitarra » F »Fobia » Hoy tengo miedo (Tab)

Hoy tengo miedo
Fobia

Letras, Acordes y Tabs para Guitarra, Bajo y Ukulele

  •   INTRO [ E5 F#5 E5 C#5 C#5 B5 A5 ]
    
    e:I----------------------------------------I
    B:I----------------------------------------I
    G:I----------------------------------------I
    D:I-9-9-9-9--10-10--9--6-6-6-6--6-6-6-6-6--I
    A:I-7-7-7-7--9--9---7--4-4-4-4--4-4-4-4-4--I
    E:I----------------------------------------I
                                                   X2
    e:I-------------------------------------I
    B:I-------------------------------------I
    G:I-------------------------------------I
    D:I-6-6-6-6--4-4-4--2-2-2-2--2-2-2-2-2--I
    A:I-4-4-4-4--2-2-2--0-0-0-0--0-0-0-0-0--I
    E:I-------------------------------------I
    
    
      E5         F#5   E5    C#5
       Hoy tengo miedo de salir otra vez
              C#5          B5             A5 
    
  • INTRO:(E,F#m,C#m)(x2)
    
    
      E            F#m              C#m
       Hoy tengo miedo de salir otra vez
          C#m          B                A
       tengo miedo de encontrarte como aquella vez.
             E          F#m              C#m
       Los nervios me traicionan, me derrota el estress
          C#m            B         A
       se que puedo arrepentirme despues.
    
      E           F#m         C#m
       Hoy tengo miedo de salirte a buscar,
         C#m            B           A
       tengo miedo de poderte encontrar.
             E           F#m          C#m
       Tengo miedo de tus ojos, tengo miedo de hablar
              C#m       B        A
       Tengo miedo de quererte besar.
    
  •   E        F#m       C#m
    D-9-9-9-9--11-11--9--6-6-6-6--6-6-6-6--
    A-7-7-7-7--9--9---7--4-4-4-4--4-4-4-4--
    E-7-7-7-7--9--9---7--4-4-4-4--4-4-4-4--
               B      A
    D-6-6-6-6--4-4-4--2-2-2-2--2-2-2-2--
    A-4-4-4-4--2-2-2--0-0-0-0--0-0-0-0--
    E-4-4-4-4--2-2-2--0-0-0-0--0-0-0-0--
    
    E           F#m       C#m
    Hoy tengo miedo de salir otra vez,
           C#m            B             A
    tengo miedo de encontrarte como aquella vez.
    Los nervios me traicionan, me derrota el estrés,
    sé que puedo arrepentirme después.
    
    Hoy tengo miedo de salirte a buscar,
    tengo miedo de poderte encontrar.
    Tengo miedo de tus ojos tengo miedo de hablar,
    tengo miedo de quererte besar.
    
  • *----------------------------*
    *----------------------------*
    *FOBIA - HOY TENGO MIEDO     *
    *Colaboracion: Nahum Palacios*
    *mugroso6@hotmail.com        *
    *----------------------------*
    *----------------------------*
    
    Con intro de bajo
    
    Hoy tengo miedo de salir otra vez
    Tengo miedo de encontrarte como aquella vez
    Los nervios me taricionan me derrota el estres
    Se que puedo arrepentirme después
    
    Fig. 1
    se puede tocar con dos guitarras una como
    con distor y otra con Chorus
    e|-------------------|-------------------|
    B|-------------------|--------14---------|
    G|-----9--------11---|----13------13-----|
    D|---9---9----11--11-|-11------------11--|
    A|-7--------9--------|-------------------|
    E|-------------------|-------------------|
    
    e|-------------------|-------------------|
    B|-----14-------12---|--------10---------|
    G|---13--13---11--11-|----9-------9------|
    D|-11-------9--------|-7-------------7---|
    A|-------------------|-------------------|
    E|------------------
  • Intro
    G:I--------------------------------------------------
    D:I--------------------------------------------------
    A:I-7777--99--7--444444444-4444--222-000000000----(X2)
    E:I--------------------------------------------------
    
    G:I--------------------------------------------------
    D:I--------------------------------------------------
    A:I-7777--99--7--444444444-4444--222-000000000----(X4)
    E:I--------------------------------------------------
    Hoy tengo miedo de salir otra vez
    Tengo miedo de encontrarte como aquella vez
    Los nervios me traicionan me derrota el stress
    Sé que puedo arrepentirme después
    Hoy tengo miedo de salirte a buscar
    Tengo miedo de poderte encontrar
    Tengo miedo de tus ojos, tengo miedo de hablar
    Tengo miedo de quererte besar
    
    G:I--------------------------------------------------
    D:I--------------------------------------------------
    A:I--------------4(x8)--5(x8)--4(x16)----------------
    E:I-5(x8)--4(x8)-----------------------5(x16)---------
    Me digo no seas tonto
    No seas tan 
  • Intro
    G------------------------------------------------I
    D------------------------------------------------I
    A--7777---99--7----------------------------------I
    E----------------9-99999-999---777--4444444------I
    pre coro
    G------------------------------------------------
    D------------------------------------------------
    A----------------------444444444---55555555------
    E-55555555----44444444---------------------------
    
    
    
    Coro
    G------------------------------------------------I
    D------------------------------------------------I
    A--7777777777---999999999------------------------I
    E---------------------------1010101010101010-----I
  • +
    ¡Colabora con nosotros!
    Envíanos tu versión de esta canción

Letra de Hoy tengo miedo
X2
A:I-4-4-4-4--2-2-2--0-0-0-0--0-0-0-0-0--I
Hoy tengo miedo de salir otra vez
tengo miedo de encontrarte como aquella vez.
Los nervios me traicionan, me derrota el estress
se que puedo arrepentirme despues.
Hoy tengo miedo de salirte a buscar,
tengo miedo de poderte encontrar.
Tengo miedo de tus ojos, tengo miedo de hablar
Tengo miedo de quererte besar.
me digo no seas tonto,
no seas tan esceptico
no trates de escapar.
Hoy tengo miedo de volver a bailar
Tengo miedo que te puedas burlar
Me dan miedo las personas no quiero manejar
Tengo miedo que me pueda gustar
Hoy tengo miedo de salir otra vez
Tengo miedo de volver a caer
Me dan miedo las mentiras ya no tengo más fé
Tengo miedo de volver a creer
y digo no seas tonto,
no seas tan exceptico
no trates de escapar.
No todos son tan malos, no todo está mal
No todos son villanos queriéndote matar
No todo está perdido ni se va a acabar
La vida es un pic-nic
No todos son tan malos, no todo está mal
No todos son villanos queriéndote matar
No todo está perdido ni se va a acabar
La vida es un pic-nic
X3
A:I-4-4-4-4--2-2-2--0-0-0-0--0-0-0-0-0--I
y digo no seas tonto,
no seas tan exceptico
no trates de escapar.
No todos son tan malos, no todo está mal
No todos son villanos queriéndote matar
No todo está perdido ni se va a acabar
La vida es un pic-nic
No todos son tan malos, no todo está mal
No todos son villanos queriéndote matar
No todo está perdido ni se va a acabar
La vida es un pic-nic
Aqui tienen esta rola del disco nuevo de fobia Wow 8704,
Si tienen alguna duda o corrección mandenme un mail.




[Hoy tengo miedo chords][Hoy tengo miedo cifra]
© LaCuerda.net · aviso legal · privacidad · es · en · pt · contacto