Acordes de Guitarra » F »Fobia » Dos Corazones (Tab)

Dos Corazones
Fobia

Letras, Acordes y Tabs para Guitarra, Bajo y Ukulele

  • F#5                   D5
       Desde que tu llegaste
      A5                     C#5
       mi vida es un desmadre
      F#5
       siempre que estoy contigo
                D5                 A5    C#5
       se me olvida lo que quiero decir.
    
      F#5                  D5
       Desde que me tocaste
            A5
       no puedo concentrarme
                 E5                      F#5 D5 A5 E5
       todo el tiempo estoy pensando en ti.
    
      F#5                   D5
       Desde que tu llegaste
            A5               C#5
       me siento en otra parte
    
  •    F#m                D
    Desde que tu llegaste
        A                  C#
    Mi vida es un desmadre
         F#m                           D
    Siempre que estoy contigo se me olvida
                     A   C#
    lo que quiero decir
    
       F#m                D
    Desde que me tocaste
         A
    No puedo concentrarme
              E                      F#m   D   A   E
    Todo el tiempo estoy pensando en ti
    
       F#m                D
    Desde que tu llegaste
         A                  C#
    Me siento en otra parte
    
  • e|------------------|-----------------|-----------------|-----------------|
    B|-------------2----|-----------------|-----------------|-----------------|
    G|-----2---2-2------|-----7--7-6------|-----6---6---6---|-----6--6-5------|
    D|-4-4---4-------4--|------------7----|-7-7---7---7---7-|------------6----|
    A|------------------|-5-5----------5--|-----------------|-4-4----------4--|
    E|------------------|-----------------|-----------------|-----------------|
    
    riff2
    
    e|-----------------|----------------|------------------|------------------|
    B|-------------2---|----------------|------------------|------------------|
    G|-----2---2-2-----|-----7--7-6-----|-----6---6---6----|------9--9-8------|
    D|-4-4---4-------4-|------------7---|-7-7---7---7---7--|-------------9----|
    A|-----------------|-5-5----------5-|------------------|--7-7----------7--|
    E|-----------------|----------------|------------------|------------------|
    
    
    
    
    riff3
    
  • Saludos... ojala que les guste la transcripcion..
    Fobia rifa mucho mucho!!!!
    
    
    Empieza aki (0:10)
    Siempre que estoy contigo…
    G|----------------------------|
    D|----------------------------|
    A|-------55-55-------44-44----|
    E|-22-22-------55-55----------|
    
    Y así.. el único cambio que hace
    Antes del coro es asi:
    G|---------------------6---6--|
    D|----------------------------|
    A|-------55-55-------44--44---|
    E|-22-22-------55-55----------|
    
    Coro
    2 corazones laten dentro de mi
    G|--4--4--4--4---7--7--7--7--------------|
    D|----------------------------4--4--4--4-|
    A|-2--2--2--2---5--5--5--5---------------|
    E|---------------------------2--2--2--2--|
    
    G|--------------|
    D|--4--6--7--6--|
    A|--------------|
    E|-2--4--5--4---|
    
    Vuelve al verso varias veces
    Después coro
    
    Después: (2:24)
    G|----------------------------------------------|
    D|------------------------1615h16-y-va-subiendo-|
    A|-1514h15—1211h12------------------------------|
    E|----------------------------------------------|
    
    Vuelve al cor
  • +
    ¡Colabora con nosotros!
    Envíanos tu versión de esta canción

Letra de Dos Corazones
Desde que tu llegaste
mi vida es un desmadre
siempre que estoy contigo
se me olvida lo que quiero decir.
Desde que me tocaste
no puedo concentrarme
todo el tiempo estoy pensando en ti.
Desde que tu llegaste
me siento en otra parte
estoy insoportable
mis amigos se aburrieron de mi.
Pre coro:
Es muy complicado
no importa que me esconda
siempre algo me conecta a ti.
Dos corazones laten dentro de mi
Dos corazones laten dentro de mi
Dos corazones laten dentro de mi
Dos corazones laten dentro de mi
Desde que me llamaste
mi vida es un misterio
desde que me tocaste
tengo una razon para vivir.
Es muy complicado
no importa que me esconda
siempre algo me conecta a ti.
Dos corazones laten dentro de mi
Dos corazones laten dentro de mi
Dos corazones laten dentro de mi
Dos corazones laten dentro de mi
(Aqui se puntea F5)
Dos corazones laten dentro de mi
Dos corazones laten dentro de mi
Dos corazones laten dentro de mi
Dos corazones laten dentro de mi




[Dos Corazones chords][Dos Corazones cifra]
© LaCuerda.net · aviso legal · privacidad · es · en · pt · contacto