Acordes de Guitarra » F »Fobia » Veneno Vil (Tab)

Veneno Vil
Fobia

Letras, Acordes y Tabs para Guitarra, Bajo y Ukulele

  •   F#m
      Dicen que no conocio el amor
                                      A
      dicen que tiene maldito el corazon
      
      que no tiene salvacion
      F#m
      dicen que es una mujer fatal
                                         A
      un paso en falso y te vuelves de cristal
      
      F#m
      como la fuerza de un huracan
                                             A
      y el apetito que tiene cualquier predador animal
      F#m
      con la ponzo~a de un alacran
                                             A
      con la inocencia de un ni~o y bajo la manga un pu~al
                                             
    
  • Q onda, este mi primer cancion q saco para la cuerda según yo suena bien
    Y bueno cualquier cosa mi e-mail es elfego_buenia111@hotmail.com
    
    
    
    Intro
    
    E||------------2-5-4-3-2-3----------2-5--4--3--2--7-|
    B||----------2--------------------2-----------------|
    G||*-------2--------------------2-------------------|
    D||*-----4--------------------4---------------------|
    A||-------------------------------------------------|
    E||-------------------------------------------------|
    
    
    
    -----------2-5-4-3-2-3-2h-3p-2p-0----------------------------||
    ---------2------------------------2h-3p-2p-0-----------------||
    -------2-------------------------------------3h-4p-3p-0-----*|| X2
    -----4--------------------------------------------------4-0-*||
    -------------------------------------------------------------||
    -------------------------------------------------------------||
    
    
    VERSO
    
    1.- Dicen q no conocio el amor dicen q tiene maldito el corazon
    2.- dicen q es una mujer fatal un paso en falso y t vuelve de cr
  • F#m
    E|---5-4-3-2-3-|---5-4-3-2-7-|---5-4-3-2-3-|--3-2-0-------------------|
    B|-------------|-------------|-------------|--------3-2-0-------------|
    G|-------------|-------------|-------------|--------------4-3-0-------|
    D|-------------|-------------|-------------|--------------------4-3-0-|x2
    A|-------------|-------------|-------------|--------------------------|
    E|-------------|-------------|-------------|--------------------------|
    F#m
      Dicen que no conocio el amor
                                      A
      dicen que tiene maldito el corazón
    
      que no tiene salvación
      F#m
      dicen que es una mujer fatal
                                         A
      un paso en falso y te vuelves de cristal
    
      F#m
      como la fuerza de un huracán
    
  • Intro
    
          1
    |---------------|
    |---------------| x 8
    |------4--2-----|
    |--2------------|
    
    Verso
           2
    
     |------------|
     |------------|
     |-----4--2---| x4
     |-2----------|
    
      Verso
            3
     |-------------|
     |-------------|
     |-----4--7----|x4
     |--5----------|
    
    (la misma secuencia)
                        2
    Dicen q no conocio el amor dicen q tiene maldito
                     3
    El corazon que no tiene salvacion
                       2
    dicen que es una mujer fatal  un paso en falso
                        3
    y te vuelves de cristal
    
      2
    como la fuerza de un huracan y el apetito que tiene
                          3
    cualquier predador animal
    
      2
    con la ponzoña de un alacran con la inocencia de un niño
                        3
    y bajo la manga un puñal
    
    
    mira sus ojos y juega en su juego y veras...
    
    
    Coro
          Uh Uh Uuuh Uuuh
    
    |------------------|
    |------------------|
    |------------------|x6
    |-2-222-4-5--------|
    
    Eres veneno vil
    
    |--------------------|
    |--------------------|
    |-222222--55555555---|
    |------
  • Intro
    
      F#m
    |---------------|
    |---------------| x 8
    |------4---2----|
    |--2------------|
    
    Verso
    
      F#m
    Dicen q no conocio el amor dicen q tiene maldito
     |------------|
     |------------|
     |-----4---2--| x4
     |-2----------|
    
          A
    El corazon que no tiene salvacion
     |-------------|
     |-------------|
     |------4---9--|x4
     |--5----------|
    
    (la misma secuencia)
      F#m
    dicen que es una mujer fatal  un paso en falso
                        A
    y te vuelves de cristal
    
      F#m
    como la fuerza de un huracan y el apetito que tiene
                          A
    cualquier predador animal
    
      F#m
    con la ponzoña de un alacran con la inocencia de un niño
                         A
    y bajo la manga un puñal
    
                                          F#m
    mira sus ojos y juega en su juego y veras...
    
    
    Coro
         Uh Uh Uuuh Uuuh
      F#m        A
    |---------------|
    |---------------|
    |---------------|x6
    |--2-2-4/5--5-5-|
    
    Eres veneno vil
      Bm           D
    |--------------------|
    |--------------------|
    |-2-2-2-2-2/-5-5-5-5-|
    |--------------
  • +
    ¡Colabora con nosotros!
    Envíanos tu versión de esta canción
  • Tutorial
    HD
    Como tocar VENENO VIL en guitarra - Fobia [Tutorial Somos Posers]
    6:36

Letra de Veneno Vil
Dicen que no conocio el amor
dicen que tiene maldito el corazon

que no tiene salvacion
dicen que es una mujer fatal
un paso en falso y te vuelves de cristal

como la fuerza de un huracan
y el apetito que tiene cualquier predador animal
con la ponzo~a de un alacran
con la inocencia de un ni~o y bajo la manga un pu~al

mira sus ojos y juega en su juego y veras...
Uh, Uh, Uh
Eres veneno vil. (x2)
dicen que es como una maquina
nada se salva de una hembra tan voraz
dicen que es como una vibora
beso tras beso propaga su maldad
mira sus ojos y juega en su juego y veras...
Uh, Uh, Uh
Eres veneno vil. (x2)
Dicen que no conocio el amor
dicen que tiene maldito el corazon

que no tiene salvacion
dicen que es una mujer fatal
un paso en falso y te vuelves de cristal

como la fuerza de un huracan
y el apetito que tiene cualquier predador animal
una catastrofe natural
tiene los ojos de fuego y corazon de metal
Mira en sus ojos...
Eres veneno vil y tu mordida es mortal
tras de ese vientre animal
eres veneno vil de mordedura fatal
tras de ese vientre animal
eres veneno vil




[Veneno Vil chords][Veneno Vil cifra]
© LaCuerda.net · aviso legal · privacidad · es · en · pt · contacto