Acordes de Guitarra » F »Fobia » el Crucifijo (Tab)

el Crucifijo
Fobia

Letras, Acordes y Tabs para Guitarra, Bajo y Ukulele

  • Dm          A#
    Yo soy solo una piedra
    Gm          A#
    clavada entre la tierra
    Dm       A#  
    soñando con que escarves
    Gm         A#
    y alguna vez me veas.
    
    Dm           A#
    No soy mas que la sombra
    Gm         A#
    del polvo sobre el suelo
    Dm      A#
    el ojo de la hormiga
    Gm         A#
    que se cerro de sueño
    
    C            F
    Una y otra vez sacame de entre la tierra
    
  • Este es el intro y el riff(1) que acompaña parte de la canción
    
    |------------------------------------------------------------------
    |------------------------------------------------------------------
    |--2--2--2-----3--3--2-----3--3--3----3--3--2----------------------
    |-0--0--0--0^3--3---3-------------------------3--------------------
    |------------------------1--1--1-----------------------------------
    |-----------------------------------3--3---------------------------
    
    
    Después se toca esto 2 veces
    
    |-------------------------------------------------------8------------
    |--------------------------------------------------5-7---------------
    |--3--4-5-7--5-4----------4-5-7---5-4-5-----4-5-7--------------------
    |----------------5-5-5-5-----------------5---------------------------
    |--------------------------------------------------------------------
    |--------------------------------------------------------------------
    
    
    riff 1  hasta
    
    Y es que hemos muerto de amor...
    ( 4 veces)
    |-----------
  • +
    ¡Colabora con nosotros!
    Envíanos tu versión de esta canción

Letra de el Crucifijo
Yo soy solo una piedra
clavada entre la tierra
soñando con que escarves
y alguna vez me veas.
No soy mas que la sombra
del polvo sobre el suelo
el ojo de la hormiga
que se cerro de sueño
Una y otra vez sacame de entre la tierra
llevame hasta donde estes, donde nadie nos detenga
Yo soy esa palabra
que tu jamas dijiste
que se quedo guardada
que se quedo tan triste
Yo soy el crucifijo
al fondo de tu iglesia
al cual ya no visitas
al cual ya no le rezas
Y es que hemos muerto de amor
pero el amor nunca muere
amor nunca muere
Visita mi Página de la Historia del Rock Mexicano
http://www.angelfire.com/oh/RockAnime/




[el Crucifijo chords][el Crucifijo cifra]
© LaCuerda.net · aviso legal · privacidad · es · en · pt · contacto