Acordes de Guitarra » F »Fernando Delgadillo » Hoy ten miedo de mí (Tab)

Hoy ten miedo de mí
Fernando Delgadillo

  • Letra y Acordes
                        SOL     RE/FA#      MIm
    Hoy que llevo en la boca el sabor a vencido
      MIm/RE  DO     SOL/SI      LAm      SOL        RE/FA#
    procura tener a la mano a un amigo que cuide tu frente y tu voz
                SOL         DO         SOL
    y que cuide de ti, para ti y tus vestidos
        RE/FA#    MIm      MIm/RE   DO         LAm        SOL
    y a tus pensamientos mantenlos atentos y a mano a tu amigo
                                                                   SOL
    DO-RE7-MIm-MIm/RE-DO-RE4,7-SOL-SOL4-SOL
    
                      SOL     RE/FA#      MIm        MIm/RE  DO RE
    La importancia de verte morderte los labios de preocupación
                   SOL   RE/FA#      MIm7
    es hoy tan necesaria como verte siempre
         MIm/RE    DO9     SOL/SI   LAm        LA7/DO#    RE4-RE
    como andar siguiéndote con la cabeza en la imaginación
                          DO                  RE
    porque sabes, y si no lo sabes no importa,
                 SOL        RE/FA#      MIm      MIm/RE    DO   RE
    
  • Letra y Acordes
    G G G G
    G D Em D C D G
    
                        G          D       Em
    Hoy que llevo en la boca el sabor a vencido
               C        G         Am        G         D
    procura tener a la mano a un amigo que cuide tu frente y tu voz
                    G        C           G
    y que cuide de ti, para ti y tus vestidos
         D        Em         D       C         Am          G
    y a tus pensamientos mantenlos atentos y a mano a tu amigo
    
    
                       G        D        Em           D      C        D
    La importancia de verte morderte los labios de preocupación
                    G       D        Em
    es hoy tan necesaria como verte siempre
         D         C        G        Am          A      D
    como andar siguiéndote con la cabeza en la imaginación
                     C                   D
    
  • Letra y Acordes
     INTRO  G G/F#  Em  Em7  C  D  G  
     
    
                          G    G/F#         Em
    Hoy que llevo en la boca el sabor a vencido
      Em7             C  Am/B      Am       Am7               D
    procura tener a la mano a un amigo que cuide tu frente y tu voz
                    G   G/C        G
    y que cuide de ti, para ti y tus vestidos
        G/F#    Em         Em7          C       D           G
    y a tus pensamientos mantenlos atentos y a mano a tu amigo
                                                                   SOL
      INTRO  G    G/F#         Em  Em7             C  Am/B      Am       Am7
    
    
    
                           G    G/F#         Em   Em7       C
    La importancia de verte morderte los labios de preocupación
      D               G     G/F#        Em
    es hoy tan necesaria como verte siempre
    
  • Letra y Acordes
                        SOL     RE/FA#      MIm
    Hoy que llevo en la boca el sabor a vencido
      MIm/RE  DO     SOL/SI      LAm      SOL        RE/FA#
    procura tener a la mano a un amigo que cuide tu frente y tu voz
                SOL         DO         SOL
    y que cuide de ti, para ti y tus vestidos
        RE/FA#    MIm      MIm/RE   DO         LAm        SOL
    y a tus pensamientos mantenlos atentos y a mano a tu amigo
                                                                   SOL
    DO-RE7-MIm-MIm/RE-DO-RE4,7-SOL-SOL4-SOL
    
                      SOL     RE/FA#      MIm        MIm/RE  DO RE
    La importancia de verte morderte los labios de preocupación
                   SOL   RE/FA#      MIm7
    es hoy tan necesaria como verte siempre
         MIm/RE    DO9     SOL/SI   LAm        LA7/DO#    RE4-RE
    como andar siguiéndote con la cabeza en la imaginación
               (V0, V2, V3)DO                  RE
    porque sabes, y si no lo sabes no importa,
                 SOL        RE/FA#      MIm      MIm/RE    DO   RE
    
  • Tablatura
       cura tener  A LA mano a un amigo que cuide tu frente y tu voz,      y que
    1|----------3-------|-0----------------|------------------|------------------|E
    2|-------3-----0h-1-|----3p-1--------3-|-------0--------1-|-------1--------1-|B
    3|----0-------------|-------------0----|----0--------0----|----0--------0----|G
    4|-0----------------|------------------|------------------|-0----------------|d
    5|------------------|-3----------------|------------------|----------3-------|a
    6|----------3-------|----------3-------|-2--------0-------|------------------|e
       cuide de tí para  tí tus vestidos y a tus pensamientos mantenlos atentosya
    1|------------------|------------------|----0h-3----------|------------------|E
    2|-------1--------3-|------------------|-3----------------|----------------3-|B
    3|----0--------0----|-------0--------2-|------------------|----2p-0-----0----|G
    4|-0----------------|----------0--4----|------------------|-0----------------|d
    5|------------------|-0h-2-------------|----------0h-2h-3-|------------------|a
    6|----------3-------|------------------|------------------|----------3-------|e
    la mano tu amigo.
    1|----------------3-|------------------|-------------3----|----3-------------|E
    2|-3--0-----1-------|----1p-0--------0-|-------0--------1-|-------1--------0-|B
    3|-------0-----0----|-------------0----|----0-------------|-------------0----|G
    4|-0----------------|-0----------------|-0----------------|-0----------------|d
    5|----------3-------|------------------|----------3-------|------------------|a
    
  • Tablatura
       cura tener  A LA mano a un amigo que cuide tu frente y tu voz,      y que
    1|----------3-------|-0----------------|------------------|------------------|E
    2|-------3-----0h-1-|----3p-1--------3-|-------0--------1-|-------1--------1-|B
    3|----0-------------|-------------0----|----0--------0----|----0--------0----|G
    4|-0----------------|------------------|------------------|-0----------------|d
    5|------------------|-3----------------|------------------|----------3-------|a
    6|----------3-------|----------3-------|-2--------0-------|------------------|e
       cuide de tí para  tí tus vestidos y a tus pensamientos mantenlos atentosya
    1|------------------|------------------|----0h-3----------|------------------|E
    2|-------1--------3-|------------------|-3----------------|----------------3-|B
    3|----0--------0----|-------0--------2-|------------------|----2p-0-----0----|G
    4|-0----------------|----------0--4----|------------------|-0----------------|d
    5|------------------|-0h-2-------------|----------0h-2h-3-|------------------|a
    6|----------3-------|------------------|------------------|----------3-------|e
    la mano tu amigo.
    1|----------------3-|------------------|-------------3----|----3-------------|E
    2|-3--0-----1-------|----1p-0--------0-|-------0--------1-|-------1--------0-|B
    3|-------0-----0----|-------------0----|----0-------------|-------------0----|G
    4|-0----------------|-0----------------|-0----------------|-0----------------|d
    5|----------3-------|------------------|----------3-------|------------------|a
    
  • Tablatura
         G      G/D      F#/D    E/D     D/G     C/D     B/D     A/D     D  <---- a veces no completo
    e|-----3--|------x|------x|------x|------x|------x|------x|------x|------3--2--0p2--|
    B|----3--3|-----3-|-----3-|-----3-|-----3-|-----3-|-----3-|-----3-|-----3-3--3----3-|
    G|---0--0-|----0--|----0--|----0--|----0--|----0--|----0--|----0--|----2---2--2-----|
    D|--x-----|---x---|---x---|---x---|---0---|---x---|---x---|---x---|---0-------------|
    A|-x------|--x----|--x----|--x----|--x----|--3----|--2----|--0----|--x--------------|
    E|3-------|-3-----|-2-----|-0-----|-x-----|-x-----|-x-----|-x-----|-x---------------|
    
        D#*       E*       D*         C          C*
    e|------x|------0--|------0--|------0--|------0----|
    B|-----0-|-----0--0|-----0--0|-----1--1|-----3--3--|
    G|----0--|----0--0-|----0--0-|----0--0-|----0--0---|
    D|---1---|---2-----|---0-----|---x-----|---x-------|
    A|--x----|--x------|--x------|--3------|--3--------|
    E|-x-----|-x-------|-x-------|-x-------|-x---------|
    
    INTRO
    
    e|-----8------8------8------8---------------------------------------0-------3---2---0h2-----|
    B|----8--8---8--8---8--8---8--8----8---8---8---0---0---0---1---0---3-3-----3-3---3------3---|
    
  • Tablatura
    este tab lo hice con mucho cuidado para que no tenga errores como todos
    los de aki, asi es que sin miedo a equivocarme les digo que es el
    mejor.
    
    va dedicado al jonathan, y a toda la banda de trovadores que lo lean,
    asi como para los parasitos que usan mis transcripciones para poder tocarla
    (esta bien chavos echenle ganas) pero esta especialmente
    dedicada a mi niña magali,
    te quiero mucho, no lo olvides
    practiquenla y si tienen dudas me las mandan
    
    intro:
    
    e|-------8------------8------------8------------8---------|
    B|-----8-----8------8------8-----8-----8------8------8----|
    G|---0------------0------------0------------0-------------|
    D|---------0-------------0-----------0------------0-------|
    A|--------------------------------------------------------|
    E|-8------------8------------8------------8---------------|
    
    e|--------------------------------------------------------|
    B|-----8-----8-----8-----0-----0-----0-----1-------0------|
    G|---0-----0-----0-----0-----0-----0-----0-------0-------
  • +
    ¡Colabora con nosotros!
    Envíanos tu versión de esta canción

Letra de Hoy ten miedo de mí
Hoy que llevo en la boca el sabor a vencido
procura tener a la mano a un amigo que cuide tu frente y tu voz
y que cuide de ti, para ti y tus vestidos
y a tus pensamientos mantenlos atentos y a mano a tu amigo
La importancia de verte morderte los labios de preocupación
es hoy tan necesaria como verte siempre
como andar siguiéndote con la cabeza en la imaginación
porque sabes, y si no lo sabes no importa,
yo se lo que siento yo se lo que cortan después unos labios
esos labios rojos y afilados
y estos puños que tiemblan de rabia cuando estás contenta
y que tiemblan de muerte si alguien se te acercara a ti.
Hoy procura que aquella ventana que mira a la calle en tu cuarto
se tenga cerrada
porque no vaya a ser yo el viento de la noche
y te mida y recorra la piel con mi aliento
y hasta te acaricie y te deje dormir
y me meta en tu pecho y me vuelva a salir
y respires de mi ...
O me vuelva una estrella y te estreche en mis rayos
y todo por no hacerme un poco de caso
ten miedo de mayo
y ten miedo de mi.
Porque no vaya a ser que cansado de verte
me meta en tus brazos para poseerte y te arranque las ropas
y te bese los pies
y te llame mi diosa y no pueda mirarte de frente
y te diga llorando después:
Por favor tenme miedo
tiembla mucho de miedo mujer
porque no puede ser...
Acordes:



© LaCuerda.net · aviso legal · privacidad · contacto