Acordes de Guitarra » F »Fernando Delgadillo » Julieta (Tab)

Julieta
Fernando Delgadillo

Letras, Acordes y Tabs para Guitarra, Bajo y Ukulele

  • intro: D - D9/F# - G - A7 (x2)
    
    
          D              D9/F#
    Las noches, son un mar de oleaje
      G            A7
    torvo que a veces me trae
         D      D9/F# - G - A7
    recuerdos
               D              D9/F#
    y qué recuerdos los que vuelan
           G             A7
    esta noche de donde hace tantos
     D                D9/F#
    años se hablan quedado
        G    A7 (^)
    dumiendo
         D            D9/F#
    recuerdos que me van llegando             
         G          A7
    
  •        D                                                  D9/F#           
    6E----------------------------------2------------------------------------
    5A-----------------------------------------------------------------------
    4D----0------------------------------------------------------------------
    3G------------2--------2-----------------2--------2---------------------
    2B--------3--------3------------------3-------3------------------------
    1e----------------------------1---------------------------0-------------
    
    
             G                        A7sus4                  D(y se repite x2) 
    6E----3------------------------------------------------------------------
    5A--------------------------------0-----------------0-------------------
    4D--------------------------------------------------------0-------------
    3G--------------0-------0-----------------0----------------------------
    2B----------3-------3----------------3---------------------------------
    1e---------------------------0-----------------0-----------------------
    
    
    
         D              D9/F#
    
  • D       XX0232
    D/F#       2X0233
    D/C#       X4X232
    Em       022000
    Em*       022003
    Em/D       020000
    G       320033
    Am       X02210
    A7sus       X02030
    A7sus*       X02033
    A7sus/C# X42030
    Bm       X24432
    
    
    La canción está en D Majeur y precisamente toca esa escala de vez en cuando.
    Arriba de la tab coloco el nombre del acorde y abajo la letra de la canción.
    Para tocarla hay que hacer PIPMPA (Pulgar/Indice/Pulgar/Medio/Pulgar/Anular)
    
      D                 D/F#               G               A7sus 
    1|----------2-------|----------------3-|----------------3-|----------------0-|E
    
  • A 
    sacarla y resulto en esto. Este trabajo se lo dedico a mi "julieta" Phyllis.
    Espero que lo disfruten
    
    Nota: Toda la cancion lleva el mismo arpegio de la introduccion, es mas 
    casi 
    toda la cancion es la introduccio . Son tiempos iguales, solo con 
    unos bajos 
    que ahi indico.
    
    Intro:
       D              D9/F#            G               A7
    e|-------2------|---------------|---------------|---------------|
    B|------------3-|-------3-------|-------3-------|-------2-------|
    G|----2----2----|----2--------2-|----0--------0-|-------------0-|
    D|-0------------|----------0----|----------0----|----2-----2----|
    A|--------------|---------------|---------------|-0-------------|
    E|--------------|-2-------------|-3-------------|---------------|
    
       D              D9/F#            G               A7
    
  •    D                D9/F#             G             A
    \6    1/          \6    1/         \6    1/      \6    1/
     ------            ------           ------        ------
     ||||||            ||||||           ||||||        ||||||
     |||1|2            1||2||           |1||||        ||1|||
     ||||3|            ||||34           2|||3|        ||||3|
    
    E--------------|--2-------------|--3------------|---------------|
    A--------------|----------------|---------------|--0------------|
    D-0------------|------0---------|------0--------|------2--------|esto acompaña el 90%
    g-----2---0----|----2------2----|----0-----0----|----0-----0----|de la canción
    b---3-------3--|--------3-------|--------3------|--------3------|
    e------2-------|-------------3--|------------0--|------------0--|
    
    
    1er. 'Me gustaba Julieta...'
    
    E-0---2---3----------------|
    A-------------0---2---4----|
    D--------------------------|
    
  •    D              D9/F#            G               A7
    e|-------2------|---------------|---------------|---------------|
    B|------------3-|-------3-------|-------3-------|-------2-------|
    G|----2----2----|----2--------2-|----0--------0-|-------------0-|
    D|-0------------|----------0----|----------0----|----2-----2----|
    A|--------------|---------------|---------------|-0-------------|
    E|--------------|-2-------------|-3-------------|---------------|
    
       D              D9/F#            G               A7
    e|------2p0-----|---------------|---------------|---------------|
    B|------------3-|-------3-------|-------3-------|-------2-------|
    G|----2----2----|----2--------2-|----0--------0-|-------0-------|
    D|-0------------|----------0----|----------0----|-------2-------|
    A|--------------|---------------|---------------|---------------|
    E|--------------|-2-------------|-3-------------|---------------|
    
    D              D9/F#
    Las noches, son un mar de oleaje
      G            A7
    torvo que a veces me trae
    
  • Introducción:  D  Dsus2/F#  G  A7  D  Dsus2/F#  G  A7
    
        D             Dsus2/F#      G 
    Las noches son un mar de oleaje torvo 
          A7              D     Dsus2/F#  G  A7
    que a veces me trae recuerdos
            D               Dsus2/F#    G
    y que recuerdos los que vuelan esta noche
             A7          D              Dsus2/F#   G     A7
    de donde hace tantos años se habían quedado durmiendo
    
      D              Dsus2/F#        G
    Recuerdos que me van llegando a oleadas 
        A7           Bm      Am         G
    y sugieren otros tiempos, tiempo de más...
          D         Dsus2/F#           G
    facilidad es la palabra que hoy me falta 
               A7          D     Dsus2/F#  G  A7
    y que hace tanto no comprendo...
    
    
  • +
    ¡Colabora con nosotros!
    Envíanos tu versión de esta canción

Letra de Julieta
Las noches, son un mar de oleaje
torvo que a veces me trae
recuerdos
y qué recuerdos los que vuelan
esta noche de donde hace tantos
años se hablan quedado
dumiendo
recuerdos que me van llegando
a oleadas y sugieren otros
tiempos
tiempos de más . . .
Facilidad es la palabra que hoy
me falta y que hace tanto no
comprendo.
No tengo más que un vago
sentimentalismo dulce y triste
pero viejo.
Viejo, como el viejo sabor de
viejas lágrimas y viejo como el
muro de su casa donde aparecía
corriendo de la mano de su
D9/F#
hermana
cuando la estaba queriendo más
que todo lo que quise y sobre
todo, lo que entiendo que quiere
alguien con diez años,
como me gustaba Julieta,
en ese entonces todo venia en otros
nombres desde el amarla en secreto
hasta el vivir con la confianza
en que me amaba tras de sus ojos
risueños,
siempre se resumia en la frase
acostumbrada, y para mi, todo
lo envolvian 3 palabras ciertas
como la verdad
me gustaba Julieta
cuando iba mirando a cualquier sitio
sin hacerlo, cuando imaginaba y
se peinaba los cabellos negros, negros
como noches y largos
y largos como inviernos
que nunca acababan de estar
cerca ni estar lejos.
Sólo y tan sólo a mi lado
y a mi lado les recuerdo.
Me gustaba Julieta
cuando imaginaba que le amaba de hace
tiempo, cuando me escribió que era
su amor, cuando lo entiendo y
además cuando como hoy lo rememoro
dulce y triste como lágrimas y besos
de mejilla y de la infancia y de
hace mucho tiempo atrás.
Me gustaba Julieta
cuando murió su Papá y se lo dijeron
cuando en la sorpresa soltó el
llanto y el cuaderno en donde decia
que me amaba siempre y cuando
fuera eterno como el sol.
Me gustaba Julieta
cuando la llevaron a vivir con sus
abuelos, cuando dejó de ir a clases
con su hermana, cuando una tarde
como cualquier tarde gris se me
fue lejos, lejos más allá de donde
van todos los sueños que han
venido desde entonces y esta
noche me repiten que de niño
y en las tardes, me gustaba Julieta.




[Julieta chords][Julieta cifra]
© LaCuerda.net · aviso legal · privacidad · es · en · pt · contacto