Tablatura para Guitarra de Fernando Delgadillo: Hoy ten miedo de mí
Conexión · Inscripción
Letras y Acordes
Pantalla Completa
Imprimir
Versión Texto
Añadir Favorito
Otras Versiones

Mostrar Diagramas
Desfile Automático
Manipular Acordes
Formato del Texto


Hoy ten miedo de mí(TAB)

Fernando Delgadillo

calidad:
fern0437
AUTOR: Fernando Delgadillo  corregir
ALBUM: desconocido
Enviado por Mario
este tab lo hice con mucho cuidado para que no tenga errores como todos
los de aki, asi es que sin miedo a equivocarme les digo que es el
mejor.

va dedicado al jonathan, y a toda la banda de trovadores que lo lean,
asi como para los parasitos que usan mis transcripciones para poder tocarla
(esta bien chavos echenle ganas) pero esta especialmente
dedicada a mi niña magali,
te quiero mucho, no lo olvides
practiquenla y si tienen dudas me las mandan

intro:

e|-------8------------8------------8------------8---------|
B|-----8-----8------8------8-----8-----8------8------8----|
G|---0------------0------------0------------0-------------|
D|---------0-------------0-----------0------------0-------|
A|--------------------------------------------------------|
E|-8------------8------------8------------8---------------|

e|--------------------------------------------------------|
B|-----8-----8-----8-----0-----0-----0-----1-------0------|
G|---0-----0-----0-----0-----0-----0-----0-------0--------|
D|--------------------------------------------------------|
A|-------------7-----------5-----------3------2-----------|
E|-8-----7-----------5-----------3------------------------|


e|-------0-----------2h3p2--------0h2p0-------3-----2-----|
B|-----1-----1-----3------------3-----------3-----3-------|
G|---0-----0-----2------------2-----------2-----2---------|
D|-------------0------------0-----------0-----------------|
A|-0------------------------------------------------------|
E|--------------------------------------------------------|


e|-----0------------------------0h3p0---------------------|
B|---3-----3------3-----------3---------------------------|
G|-2-----2------0-----------2--------------------0--------|
D|----------------------0-4------------------0h2----------|
A|------------------0h2----------------0h2h3--------------|
E|------------3-------------------------------------------|


e|----------------------------0------------0-----------2--|
B|--------------------3-----3------------1-----------3----|
G|-----------0------0-----0------------0-----------2------|
D|-------------0---------------------------------0--------|
A|------0h2----------------------0h2-3--------2h3---------|
E|-0h2h3----------0-----2---------------------------------|



e|---------0----------------------------------------------|
B|-------3-------3-----3------0-----1------1-----1--------|
G|-----0-------0-----0------0-----0------0-----0----------|
D|-2h4-------4-----2------0-------------------------------|
A|------------------------------3------2-----0------------|
E|--------------------------------------------------------|



e|-----------------------2--------------------------------|
B|------1--------1-----1-------------------0-------0------|
G|----0--------0-----2-------------------0-------0--------|
D|-----------------0-----------0--------------------------|
A|-------------------------------3-2-0--------2-----------|
E|-3--------2---------------3----------3------------------|






e|-----------------------------3--------------------------|
B|-----------------0—-1p0----1---1p0------0--------1------|
G|--------2p0----0----0----0-----0------0-------0---------|
D|------0-------------------------------------------------|
A|-0h2h3--------------3----------3------------------------|
E|------------3-----------------------0------3------------|



e|----3--------3-----------3-------------|------3---------|
B|-------1-------0-------0----0h1-0--0---|----3-----3-----|
G|---------------------0-----------------|--0-------------|
D|-0--------------------------0h2-0--0---|--------0-------|
A|----------3----------------------------|----------------|
E|------------------3--------------------|3---------------|
                                          Termina la introducción


e|-------3-----------3------------3-----------------------|
B|-----3-----3-----3-----3------3-----3------3------3-----|
G|---0-----------0------------0------------0------0-------|
D|---------0-----------0------------0---------------------|
A|--------------------------------------------------------|
E|-3-----------3------------3------------3------2---------|
                         Hoy que llevo en la boca el sabor a


e|------------------------------------------------2-------|
B|-----3-----0------1-----1-----1-----1------1---1----1---|
G|---0-----0------0-----0-----0-----0------0----2---2-----|
D|-------0-------------------------------------0----------|
A|--------------3-----2-----0-----------------------------|
E|-0------------------------------3------2----------------|
Vencido procura tener a la mano un amigo que cuide tu frente y tu voz y que



e|-------3------0-----------------------------------------|
B|-----3-----3--1---1-----3------3-----3--------0------1--|
G|---0-----0------0-----0------0-----0--------0------0----|
D|-0----------------------------------------0-------------|
A|--------------3----------------------------------3------|
E|--------------------3------2-----0----------------------|
Cuide de ti para ti tus vestidos y a tus pensamientos mantenlos atentos


e|-------------------------0h3p0--------------------------|
B|-----1-----------------3---------------------------0----|
G|---0-------0---------2-------------------2h0-----0------|
D|-0-------0-------0-4------------------0-----------------|
A|-------------0h2----------------oh2h3-------------------|
E|-------3---------------------------------------3--------|
Y en mano tu amigo.




e|---------3---------------------3------3-----------3-----|
B|-1p0---1---1p0------0------1-----1------0-------0-------|
G|-0---0-----0------0------0--------------------0---------|
D|-----------------------------0--------------------------|
A|-3---------3------------------------3-------------------|
E|----------------0------3--------------------3-----------|


e|-----------------3------------3-----------3-------------|
B|-0h1-0-0-------3-----3------3-----3-----3------3--------|
G|-------------0------------0-----------0-----------------|
D|-0h2-0-0-----------0------------0------------0----------|
A|--------------------------------------------------------|
E|-----------3------------3-----------3-------------------|


e|-------3----------------------------------------3-------|
B|-----3-----3-------3------3-----3-----0-------1-------1-|
G|---0-------------0------0-----0-----0-------0------0----|
D|---------0------------------------0---------------------|
A|-----------------------------------------3--------------|
E|-3-------------3------2-----0---------------------------|
   La importancia de verte  morderte los labios de preocupación

e|-------3------------------------------------------------|
B|-----3-----3-----3------3-----3-----0-----1-----1-----1-|
G|---2-----2-----0------0-----0-----0-----0-----0-----0---|
D|-0------------------------------0-----------------------|
A|--------------------------------------3-----2-----0-----|
E|-------------3------2-----0-----------------------------|
Es hoy tan necesaria como verte siempre como andar siguiéndote con lacabeza


e|---------------3-----2------------0-----------2---------|
B|-----1-------3-----3------------1-----------3---3-------|
G|---0-------2-----2------------0-----------2-------2-----|
D|--------0-------------------------------0---------------|
A|-3----------------------0h2-3-------2h3-----------------|
E|--------------------------------------------------------|
Y la imaginación     por que sabes y si no lo sabes no importa yo se lo que


e|-----------------------------------------3-----------3--|
B|-----3-----3-----3-----0-----1---1-----3-----3-----3----|
G|---0-----0-----0-----0-----0---0-----2-----2-----0------|
D|-------------------0---------------0--------------------|
A|-------------------------3------------------------------|
E|-3-----2-----0---------------------------------3--------|
Siento yo se lo que cortan después unos labios esos labios rojos y afila


e|-----1-----0--------------------------------------------|
B|---3-----3-----3------1-----1-----1----------1-------1--|
G|-0-----0-----0------0-----0-----0----------0-------0----|
D|------------------------2-----0----------1-------2------|
A|------------------3-------------------------------------|
E|--------------------------------------------------------|
dos, y estos puños que tiemblan de rabia cuadno estas contenta que tiemblan



e|---------------------------3-----2------0h2p0-----------|
B|-----1-----1-----0-------3-----3-----3------------------|
G|---0-----0-----0-------2-----2-----2--------------------|
D|-0--------------------0---------------------------------|
A|-------3-----4------------------------------------------|
E|--------------------------------------------------------|
De muerte si alguien se acercara a ti


e|-------3-----2-----0h2p0-------3-----3-----3------------|
B|-----3-----3-----3-----------3-----3-----3-----3--------|
G|---2-----2-----2-----------2-----2-----2-----2----------|
D|-0-----------------------0------------------------------|
A|--------------------------------------------------------|
E|--------------------------------------------------------|




e|-------3-----3------------------------------------------|
B|-----3-----3-----3--------3-----3-----0-----0-------1---|
G|---2-----2-----2---0----0-----0-----0-----0------0------|
D|-0--------------------------------------0---------------|
A|-----------------------------------------------3--------|
E|----------------------3-----2-----0---------------------|
    Hoy procura que aquella ventana que mira la calle en tu cuarto


e|-------------3-----------3------------------------------|
B|-----1-----1-----1-----3-----3------3------3--------3---|
G|---0-----0-----0-----2-----2------0------0--------0-----|
D|-------------------0------------------------------------|
A|-2-----0------------------------------------------------|
E|--------------------------------3------2--------0-------|
Se tenga cerrada,     por que no vaya a ser yo el viento de la noche y te

e|------------------------------------------------------0-|
B|-----0-----1------1-----1-----1------1------1-------1---|
G|---0-----0------0-----0-----0------0------0-------0-----|
D|-0------------------------2------0------1-------2-------|
A|-------3------2-----0-----------------------------------|
E|--------------------------------------------------------|
Mida y recorra la piel con mi aliento y hasta te acaricie y te deje dormir

e|-----------0----------------------------------------0---|
B|---1-----1------1-------1------1-----1------1-----1-----|
G|-0-----0------0-------0------0-----0------0-----0-------|
D|-----0---------------------2-----0------1-----2---------|
A|-------------------3------------------------------------|
E|--------------------------------------------------------|
     O me meta en tu pecho y me vuelva a salir y respires de mi o me vuelva

e|-----------0--------------------------------------------|
B|---1-----1-----1-----1-----1-----1-----3-----3------3---|
G|-0-----0-----0-----0-----0-----0-----0-----0------0-----|
D|-----0-----------------2-----0--------------------------|
A|-----------------3-----------------------2------0-------|
E|-----------------------------------3--------------------|
       una estrella y te estreche mis rayos y todo por no hacerme un poco


e|------------------3-----------3------------3-----1-----0|
B|-----3-----0----1-----1-----3-----3------3-----3-----3--|
G|---0-----0----0-----0-----2-----2------0-----0-----0----|
D|-------0----------------0-------------------------------|
A|------------3-------------------------------------------|
E|-3--------------------------------3---------------------|
De caso ten  miedo de mayo  y ten miedo de mí              por que no vaya

e|--------------------------------------------------------|
B|---3------1-----1-----1-----3-----3------3---------3----|
G|-0------0-----0-----0-----0-----0------0--------0-------|
D|------------2-----0-------------------------------------|
A|------3-----------------------2------0------------------|
E|------------------------3--------------------3----------|
a ser que cansado de verte me meta en tus brazos para poserte y te arranque

e|------------3-----------3------------3-----1-----0------|
B|-----0----1-----1-----3-----3------3-----3-----3------3-|
G|---0----0-----0-----2-----2------0-----0-----0------0---|
D|-0----------------0-------------------------------------|
A|------3-------------------------------------------------|
E|----------------------------3---------------------------|
Las ropas y te bese los pies                             y te llame mi


e|----------------------------------------------0---------|
B|-----1------1-----1-----1-----1-----1-------3-----3-----|
G|---0------0-----0-----0-----0-----0-------0-----0-------|
D|--------2-----0-----1-----2-----0-----------------------|
A|-3-------------------------------------3----------------|
E|--------------------------------------------------------|
Diosa y no pueda mirarte de frente y te diga llorando después



e|-------3-----------0-----------3-------------3----------|
B|-----3-----3-----3-----3-----3-----3-------3-----3------|
G|---0-----0-----0-----0-----0-----0-------0-----0--------|
D|--------------------------------------------------------|
A|-3-----------3-----------3------------------------------|
E|---------------------------------------3----------------|
                          Por favor tenme miedo


e|-------3-----------3------------3-----2-----0-----------|
B|-----3-----3-----3-----3------3-----3-----3-----3-------|
G|---0-----0-----0-----0------2-----2-----2-----2---------|
D|--------------------------0-----------------------------|
A|-3------------------------------------------------------|
E|-------------3------------------------------------------|
 Tiembla mucho de miedo mujer                       por que no puede


e|-------------------------------------------------3------|
B|-----3-----3------3-----0------1-----1----1------1------|
G|---0-----0------0-----0-----0------0--------0----0------|
D|--------------------0------------0---------------0------|
A|--------------------------3----------------------2------|
E|-3-----2-----0-------------------------3---------3------|
   Ser.
Este fichero es trabajo propio de su transcriptor y representa su interpretación personal de la canción. El material contenido en esta página es
para exclusivo uso privado, por lo que se prohibe su reproducción o retransmisión, así como su uso para fines comerciales.

© LaCuerda.net · Aviso Legal · Privacidad