Acordes de Guitarra » F »Fernando Delgadillo » Noche sin luciérnagas (Tab)

Noche sin luciérnagas
Fernando Delgadillo

Letras, Notas, Punteos, Tablaturas y Acordes de Guitarra (Tabs & Chords)

  • Letra y Acordes
    Intro: F#m7*  Bsus7  B7  Emaj7  A  F#m7*  A & E
    
    Pues resulta que no puedo estar contigo más
                      C#m                          B
    el viento esta llamando y ahora me dejó llevar
            A                             B
    pues resulta que me voy y es por lo pronto
              A           B            C#m  G#m7*
    porque aquí acaba mi vuelo junto a ti
           A                         B
    porque no me veras más y porque resulta preciso
           E
    que sigamos separados.
    
    
    Despedirnos es a un tiempo
                                      C#m
    y con nosotros un asunto indispensable
                                 B
    como el que un día nos unió
    
  • Tablatura
                F#m*                        B7*
    1|-----2---2-------2---2---|-----2---2-------2---2---|E
    2|-----5---5-------5---5---|-----5---5-------5---5---|B
    3|---2---2---2---2---2---2-|---2---2---2---2---2---2-|G
    4|-------------------------|-------------4-----------|d
    5|-------------4-----------|-2-----------------------|a
    6|-2-----------------------|-------------------------|e
                 E7*
    1|-----0---0-------0---0---|E
    2|-----4---4-------4---4---|B
    3|---1---1---1---1---1---1-|G
    4|-------------------------|d
    5|-------------2-----------|a
    6|-0-----------------------|e
                                                  (este puedes usarlo
                                                  como un riff en toda
                                                   la cancion en los
                                                   cambios de A* a E*)
             A*                   F#m*                    A*
    1|-----0---0-----0-|-----2---2---2---2---2---|-----0---0---------|E
    
  • Tablatura
                                  E
    e|-------------------|--------------------|---------------------0--|
    B|-------0----0------|--------0-----0-----|-------0----0--------0--|
    G|-------1h2----2p1- |--------1h2-----2p1-|-------1h2----2p1-------|
    D|-----------------2-|-------------------2|-----------------2------|
    A|----2--------------|----2---------------|----2-------------------|
    E|-0-----------------|-0------------------|-0----------------------|
    
    RIFF 1
    
    e|-----------------|----------------|----------------|------------------|
    B|------0---0------|-----0----0-----|------0--0------|------0-----0-----|
    G|------1h2---2p1- |-----1h2---2p1--|------1----2p1--|------1h2----2p1--|
    D|---------------2-|--------------2-|--------------2-|----------------2-|
    A|----2------------|---2------------|----2-----------|----2-------------|
    E|-0---------------|-0--------------|-0--------------|-0----------------|
    
           C#m                                B             A
    1|-------4----4---4---------4--|-----------|---------------------|
    2|-----5-5--5-5-5-5-------5-5--|------5-4--|------0h2---0-0-2-4--|
    
  • +
    ¡Colabora con nosotros!
    Envíanos tu versión de esta canción

Letra de Noche sin luciérnagas
Pues resulta que no puedo estar contigo más
el viento esta llamando y ahora me dejó llevar
pues resulta que me voy y es por lo pronto
porque aquí acaba mi vuelo junto a ti
porque no me veras más y porque resulta preciso
que sigamos separados.
Despedirnos es a un tiempo
y con nosotros un asunto indispensable
como el que un día nos unió
despedir es devolver la libertad y es
retomarme y caminar sin ir a ti
y es volver a dibujarnos cuando no esta la otra parte
que nos quisiera estrellar.
Si mi amor me dices si algo te pregunto
pero tú no me amas ya de tiempo atrás
lo callamos pensando que el mundo seguía adelante
porque nunca me decidiría a soltar.
Mi vida que sé muy bien que puede que la vida
nunca más destelle igual
pero en tanto habita el tiempo entre nosotros
y estas horas que lo dicen como encuentran su lugar
buscaré un silencio largo más alla de donde el viento
que hoy me lleva determine la distancia.
Y recordaré las horas a tu lado
como el sabor que probado nunca se llega a olvidar
y cuando desmanden mil mañanas nuevas
y aun me rompe tu recuerdo algún presente me darás
remedio para el olvido de venturas y momentos
que pasado son y que ya volveran más.
Y te llevaré conmigo y con mis pasos
y con ello habré de aprender a vivir
si bien sé que tú lo sabes ya que tanto lo hemos visto
todo empieza con nosotros donde vamos.
Mi vida que queriendo como bien te quise yo
quien se viene hoy a marchar
pero cierto es que decir: “YA NO TE AMO”
prolongó una despedida que emprendiste tiempo atrás
y con ella me encamino en esta noche sin luciérnagas
que se abre con las llaves de tu nombre.
ENTRANDO a La (A)
Los ampersand (&) son la parte en donde van los Riff
que hace en la canción. No los eh sacado muy bien pero se
escuchan más o menos.
&
&&
ACORDES:
e B G D A E



© LaCuerda.net · Aviso Legal · Privacidad