Acordes de Guitarra » F »Fernando Delgadillo » Carta a Francia (Tab)

Carta a Francia
Fernando Delgadillo

Letras, Acordes y Tabs para Guitarra, Bajo y Ukulele

  • G  D9  Am  C  G (este último SOL **5430) Em  D9/F#
    
    G  D9  Am  C  G (este último SOL **5430) Em  D9/F#
    
    G  A7  C   D
    
    G  A7  C   D  Em D9/F#
    
    
      G
         Desde el sitio en donde
         Am
         siempre estoy pensando en tí
       C                        Em - D9/F#
         con mi eterna obstinación
       G                   Am
         y anotando lo que siento
       C  
         que nos pasa aquí
                            D9 - D9/F#
    
  • G A7 C Em Dsus11/F#  G A7 C Em Dsus11/F#
    
    G A7 C D G A7 C D Em Dsus11/F#
    
      G                      A7                         C
    Desde el sitio en donde siempre estoy pensando en ti,
                          Em Dsus11/F#
    con mi eterna obstinación,
          G            A7                      C
    y anotando lo que siento que nos pasa aquí,
                        D  Dsus11/F#
    aunque no sea lo mejor...
              Em
    Como te extraño,
            A7                        C
    y como tengo miedo de perder los pasos,
              D         Dsus11/F#        Em
    de extraviar en algún lado, las promesas y los sueños,
            A7
    ¿Cuál será el mejor camino ?
    
  •   G                        A                    C
    E|---------------------|---------------------|----------------------------|1
    B|------------3--------|-0^2--------3^2------|------0^1---------1---------|2
    G|----------0---0---0--|----2--2--------2----|----------0---0-----0---0---|3
    d|--------0-------0---0|-----2---2--------2--|------------2---2-----2---2-|4
    a|----0^2--------------|-0----------0--------|--0^2-3-----------3---------|5
    e|--3---------3--------|---------------------|----------------------------|6
    
      Em              D/F#
    E|--------------|------------------|1
    B|-------0------|--------3---------|2
    G|-----0---0----|------2---2-------|3
    d|---2-------0--|----0-------0-----|4
    a|--------------|------------------|5
    e|-0------------|--2----0----------|6
    
    G - A - C - D/F#
    
    E - D/F#
    
    
  • :D  SUERTE  :D
    
    
    
    Acordes: (orientacion)
    
    Am:    0 0 2 2 1 0
    G:     3 3 0 0 0 3
    C:     0 3 2 0 1 0
    Em:    0 2 2 0 0 0
    D/A:   0 0 0 2 3 2
    D/F#:  2 0 0 2 3 3
    Dsus4: 5 5 7 7 8 5
    
    
    Intro:  A C Dsus4 G A C Dsus4 Em D/A D/F#  G
    
    
    
            G                  Am                     C
    
  •   G       D9              Am                                     C
    E|----------------0-|------------------|------------------|---------------0--|1
    B|--------------3---|----------0-0^2-3-|--3^2--0--0-------|-------------1----|2
    G|------------2-----|-------2----------|------------------|-----------0------|3
    d|---------0--------|------------------|------------------|------------------|4
    a|-----2^3----------|-0h2-0------------|------------------|--0^2-3-----------|5
    e|-3-3--------------|------------------|------------------|------------------|6
    
                            Em               D9/F#                   G
    E|---------------0--|----------------0-|----------0-------|---------------3--|1
    B|-------------0----|--------------0---|--------3---------|-------------3----|2
    G|-----------0------|------------0-----|------2-----------|-----------0------|3
    d|--2^4-5-----------|--0^2-----2-------|------------------|------------------|4
    a|------------------|--------2---------|------------------|------------------|5
    e|------------------|------0-----------|---2--------------|--0^2-3-----------|6
    
              D9              Am                                     C
    E|----------------0-|------------------|------------------|---------------0--|1
    B|--------------3---|----------0-0^2-3-|--3^2--0--0-------|-------------1----|2
    G|------------2-----|-------2----------|------------------|-----------0------|3
    
  • ------- Estas lineas entre acordes  significan que es un puente ,por lo general para cambiar al siguiente
    acorde se utilizan 'hammers' o 'pulls', háganlos, y veran que bien se escucha.
    
    
    ACORDES:
           ( E A D G B e )
    D/F#     2 0 0 2 3 3
    Dsus4*   0 0 0 2 3 3
    Dsus4    5 5 7 7 8 5
    G*       3 3 0 0 3 3
    D9       x 0 0 2 3 0
    A        5 7 7 6 5 5
    Am       0 0 2 2 1 0
    Em       0 2 2 0 3 3
    E9       0 2 0 1 0 2    o tambien  2 2 0 1 0 0 
    A7/C     0 3 2 0 2 0
    D/A      0 0 0 2 3 2  (bajo en 5ta cuerda)
    D/B      0 2 0 2 3 2
    D/C      0 3 0 2 3 2
    
    
  • +
    ¡Colabora con nosotros!
    Envíanos tu versión de esta canción

Letra de Carta a Francia
Desde el sitio en donde
siempre estoy pensando en tí
con mi eterna obstinación
y anotando lo que siento
que nos pasa aquí
aunque no sea lo mejor.
G/Em
Cómo te extraño
y como tengo miedo
de perder mis pasos,
de extraviar en algún lado
G/Em
mis promesas y mis sueños
¿Cual será el mejor camino?
todos dicen: éste si te va a llevar.
Cada vez son muchos más

los que se acercan
la gente siempre aplaude
y temo tanto darme cuenta
G/Em
que tan solo condesciendan
con mi modo de mirar,
sin saber a ciencia cierta
si comparten lo que digo
G/Em
si en verdad están conmigo.
Si conceden la importancia
y el valor que les concedo yo también.
Hoy necesito toda la noche
para contar lo que escribo
acerca de los que comercian
con la música sencilla y reciclada
y que nunca dice nada,
será que no tiene nada que decir.
Como quisiera, ver que el artista
está buscando la manera
de hablar de todo lo que se ha
vuelto importante
y aún así nunca es bastante,
aun nos falta y vaya si nos hace falta
tanto a que cantar.
En el mundo sólo miro
dos extremos hoy
y tú tan lejos de aquí
la nostalgia se me irá
con el verano
cuando vayas a venir.
Cómo te extraño
y como tengo miedo
de perder los pasos
de extraviar en algún lado
G/Em
las promesas y los sueños
cuál será el mejor camino?
estoy seguro que dirías
que tome aquel,
el que me lleve más lejos.
No he sabido decir
todo lo que pienso en tí
ni he sabido hablar de amor
tengo tanto que contarte
que he perdido
y que no encuentro
y entre alguna de estas cosas
la frescura con que idee mis planes la primera vez,
he perdido la sorpresa con que descubría en la luna
a mi cabeza si se fué pensando en tí,
y hasta el gusto de ser un irresponsable
cómo pesan las palabras cuando marcha uno detrás
y cuando soy yo quien tiene que decirlas.
Ojalá y que en esta noche
cuando menos me llegara
tu reproche a donde estoy
por si había más que decir
de lo que he dicho
y también por si lo dicho
se pudo decir mejor.
Pero no estás
y los que vienen no están para perdonarme
mis carencias personales
mas bien vienen al concierto de esta noche-e-e
esperando lo mejor.
Y yo tengo la cabeza en tantos lados
canto para tanta gente y ahora pienso tanto en tí
y aún así me alcanza el corazón para sentirlo todo
y hoy que me haces tanta falta
solamente, solamente me he querido repetir:
como te extraño y como tengo miedo de perder tus pasos
de extraviar en algún lado tus promesas y tus sueños
¿cual será el mejor camino?
y al hacerme esta pregunta pienso en tí
y en el camino que te traiga de regreso.

En esta canción puse algunas notas que quizá no existen o su nombre esta mal:

Correcciones o dudas a Eduardo Cárdenas C.
eduarjesus@hotmail.com o también a eduardo_c@latinmail.com
URL:http://www.geocities.com/SunsetStrip/Hall/7292/




[Carta a Francia chords][Carta a Francia cifra]
© LaCuerda.net · aviso legal · privacidad · es · en · pt · contacto