Acordes de Guitarra » F »Fernando Delgadillo » Tu Prisa (Tab)

Tu Prisa
Fernando Delgadillo

Letras, Acordes y Tabs para Guitarra, Bajo y Ukulele

  •     G
    No pude mirar en tus ojos ayer
       D
    estabas tan lejos, no habia que decirlo
         Am
    Tu prisa era un ave queriendo volver
         C                    D
    y dejar cielo atras, los ratos vividos
    
        G  
    Con una mirada me diste a entender y aunque
      D  
        ya me avisabas que te habia perdido
        Am
    tu boca mintiendome, un beso, dos ojos
            C               D
    que hubiera cerrado de no haber notado...
    
          G                      D
    Tu prisa... esa tu ansiosa prisa
    
  • Intro: G-G4 D-D4 Am/G C/G Dg/F#
    
        G            G4 
    No pude mirar en tus ojos ayer
       D                    D4
    estabas tan lejos, no habia que decirlo
         Am/G
    Tu prisa era un ave queriendo volver
         C/G                 Dg/F#
    y dejar cielo atras, los ratos vividos
    
        G                 G4
    Con una mirada me diste a entender 
      D                     D4  
    ya me avisabas que te habia perdido
       Am/G
    tu boca mintiendome, un beso, dos ojos
           C/G               Dg/F#
    que hubiera cerrado de no haber notado...
    
    
  • e|--------0------|
    B|-----------0---|
    G|--0------------|
    D|--0------------|
    A|--2------------|
    E|--3------------|
    
    Como poner el ritmo exacto está medio perro, oiganlo bien y sigan las pisadas y los bajos(B)
           Am7       D7sus4       E    E%       C         D7sus4     D7sus4-D7-D7sus4
    e|-----3---------3------------2----2--------3---------3----------3------2--3--------|
    B|-----1---------1------------3----3--------1---------1----------1------1--1--------|
    G|-----0---------2------------0--0^2--------0-------0^2----------2------2--2--------|
    D|-----2------0--0------------2----2--------2---------0-------0--0------0--0--------|
    A|--0--0------B-----------------------------3-----------------B---------------------|
    E|--B----------------------0--------------------------------------------------------|
                               B
    VERSO 1:
         G                               D
     No pude mirar en tus ojos ayer   estabas tan lejos, no había que decirlo
          Am/Am+ -----------------------------------(Opcional cualquiera de los dos queda)        
    
  •     G
    No pude mirar en tus ojos ayer
       D
    estabas tan lejos, no había que decirlo
         Am7
    Tu prisa era un ave queriendo volver
         C                    D7/F#
    y dejar cielo atrás, los ratos vividos.
    
        G  
    Con una mirada me diste a entender y aunque
      D  
        ya me avisabas que te había perdido
        Am7
    tu boca mintiéndome, un beso, dos ojos
            C               D7/F#
    que hubiera cerrado de no haber notado...
    
          G                      D
    Tu prisa... esa tu ansiosa prisa
    
  •      G  Am7  D7sus4  D9sus4/E       |G Am7  D7sus4 D7 |
                                    ? empieza solo GTRA II
    
    
    
    
    
    GTR II
    
     e |---------------------------------------------------------------------------------10--------
     B |-------------------------------------------------------8------10--10-8--8--10/12-----15\12-
     G |-------------------------------------------------7--9------9-------------------------------
     D |------5--7/8\7--7--5-----5--7--5----------5--7/9-------------------------------------------
     A |-5--7-----------------7-------------5--7---------------------------------------------------
     E |-------------------------------------------------------------------------------------------
    
    -----------------------------------------------------------------------------------------------
    ----12------------------------------------------------------------------------------------------
    14------14--12--14--12------12-----------------------------------------------------------------
    ------------------------14------14--12--14--12------12-----------------------------------------
    
  • +
    ¡Colabora con nosotros!
    Envíanos tu versión de esta canción

Letra de Tu Prisa
No pude mirar en tus ojos ayer
estabas tan lejos, no habia que decirlo
Tu prisa era un ave queriendo volver
y dejar cielo atras, los ratos vividos
Con una mirada me diste a entender y aunque
ya me avisabas que te habia perdido
tu boca mintiendome, un beso, dos ojos
que hubiera cerrado de no haber notado...
Tu prisa... esa tu ansiosa prisa
a donde te insita volver
a donde te tiene sujeta
que no te permite dejarte volver
¿ A dónde van tus alas ?
esas alas que no acaban de llenarse de mañana
y te urgen siempre a continuar...tarararara...
Mentira que dude y que no quiera ver
Que el tiempo es el tiempo y palabras eternas
Se van como a veces llegan a venir
a la par del delirio que insiste en tus piernas
Asi te mantengo en la mente y te se
buscando mi boca y juntando tu cuerpo
no quiero pensar que te vuelvo a tener
atrapada en la luz, humedad de un recuerdo...
Con prisa... esa tu ansiosa prisa
a donde te insita a volver
donde te tiene sujeta
que no te permite dejarte volver
¿ Qué viento abrio tus alas ?
de gaviota demorada
tras el ruego que no basta para detenerte mas tararara...
(En la siguiente estrofa se vuelve a repetir el INTRO mientras se canta...)
?/A
Hoy ya no pude ver en tus ojos ayer
?/D
que el mundo siempre tiene tanto que no has visto
?/E
las aves se marchan y el viento otra vez
te agita el cabello y te vuelve a invitarlo a probar...
... como brisa fresca de tu sonrisa fugaz.. uh uh uh...
Tan tan... les latio...?
Por cierto... los acordes son los siguientes:
?/A: X0XX13
?/D: XX0X13 (a ver como le hacen para 'mutear' las cuerdas que marco
?/E: 0xxx13 con las X... les recomiendo colocar los dedos encima de
De todos modos... si tienes alguna duda... LA QUE SEA.. hazmela saber y vere si la podemos despejar... ok...? Ojala te sea de utilidad este trabajo... y sobre todo... disfrutalo... por cierto, si tienes tiempo... hazme saber si no tuviste problemas con la cancion y ademas... si esta cancion fue estreno de Fernando en su concierto en Naucalli...
Cuidence... sean felices... :0)




[Tu Prisa chords][Tu Prisa cifra]
© LaCuerda.net · aviso legal · privacidad · es · en · pt · contacto