Acordes de Guitarra » E »Enrique Bunbury » Los Habitantes (Tab)

Los Habitantes
Enrique Bunbury

Letras, Acordes y Tabs para Guitarra, Bajo y Ukulele

  • Intro: Em, B7, Em, Am-Cmaj9, C, Em, B7, Em.
    
    G                Em    D        C           G
    Habitante de mi sangre, desde entonces hasta ahora,
    G            Em         D            C            G
    rompí mi promesa y dicen, que un contrato no se puede cancelar,
    C                G   C                      G
    no fue la curiosidad, lo que me hizo huir con ella,
    Em                       E7           Am  Cmaj9
    razones personales, que algún día contaré,
    C                 G  C                 G
    y en mundos mas allá, o en mundos venideros,
    Em                        B7                Em
    nos echaremos de menos o envejeceremos a la vez.
    Em                 B7    Em                   Am   Cmaj9
    Ya no hay nada que temer, ya no hay nada que enseñar
    C                    Em    B7                    Em
    se precipita mi debilidad, hacia la noche lenta del amor.
    G               Em  D      C           G
    Nomada del corazón, vendí flores sin aroma
    
  • Intro: F#m  C#7   F#m   Bm    D     F#m   C#7   F#m
    
    E|--2-2-4-5
    
    A                    F#m
    Habitante de mi sangre
    E            D                  A
    desde entonces hasta ahora
    A                F#m        E
    rompi mi promesa y dicen
                 D                    A
    que un contrato no se puede cancelar
    D               A
    no fue la curiosidad
    D                      A
    lo que me hizo huir con ella
    F#m
    razones personales
               F#7        Bm
    que algun dia contare
    
  • Aquí les dejo tres formas del INTRO de Los Habitantes.
    Se diferencian en la tonalidad.
    Que lo disfruten.
    
    INTRO 1 – LOS HABITANTES
    
    e|---5---7---9----7-|
    B|-7---7---7--------|
    G|------------------|
    D|------------------|
    A|------------------|
    E|------------------|
    
    e|---5---7---9----10--9--7--9--|
    B|-7---7---7-------------------|
    G|-----------------------------|
    D|-----------------------------|
    A|-----------------------------|
    E|-----------------------------|
    
    e|---5---7---9-|---5---7---9-|
    B|-7---7-------|-7---7-------|
    G|-------------|-------------|
    D|-------------|-------------|
    A|-------------|-------------|
    E|-------------|-------------|
    
    e|--7--5--4--5---|
    B|-------------7-|
    G|---------------|
    D|---------------|
    A|---------------|
    E|---------------|
    
    -----------------------------------------------------------------------
    
    INTRO 2 – LOS HABITANTES
    e|--------------------------|
    B|--------------------------|
    G|----14----16----18-----16-|
    D|-16----16----16-----------|
    A|-----------
  • Hola colegas, esta es mi segunda colaboración a lacuerda.net
    es el solo de Los Habitantes, de Enrique Bunbury.
    
    NOTA: cuando se presenta una "b" despues de una nota, significa
          que es un bend, y la nota que se encuentra enseguida de esa
          "b" es como deberia de sonar.
          Por ejemplo:
    
          14b(15)
    
          Significa que harás un bend en el traste 14 hasta que suene como si
          pisaras el trase 15, solo escucha esas partes del bend y entenderás
          lo que te trato de explicar.
          Y en las partes que se oie medio desafinado, como casi a lo ultimo
          del solo para dar ese sonido solo denle un poco duro a las cuerdas.
    
    Afinación E standar.
    
    Bueno sin más preambulos aquí está el solo.
    
    Activa el Overdrive a tu pedalera para que le de un poco de agresividad
    al solo.
    No te excedas, para que no se escuche tan sucio.
    
    E|----------------|------------------------------|
    B|----------------|-14----14----14----14-14b(15)-|
    G|-14~-11-9/11-11-|----11----11----11------------
  • +
    ¡Colabora con nosotros!
    Envíanos tu versión de esta canción

Letra de Los Habitantes
Habitante de mi sangre, desde entonces hasta ahora,
rompí mi promesa y dicen, que un contrato no se puede cancelar,
no fue la curiosidad, lo que me hizo huir con ella,
razones personales, que algún día contaré,
y en mundos mas allá, o en mundos venideros,
nos echaremos de menos o envejeceremos a la vez.
Ya no hay nada que temer, ya no hay nada que enseñar
se precipita mi debilidad, hacia la noche lenta del amor.
Nomada del corazón, vendí flores sin aroma
el aguante es importante, y del miden almenada están
no hubo otra posibilidad, lo que pasa es que me miento
y prometo que no vuelvo, aunque sepa que ni lo intento
y en mundos mas allá, o en mundos venideros,
nos hecharemos de menos o envejeceremos a la vez.
Ya no hay nada que temer, ya no hay nada que enseñar
se precipita mi debilidad, hacia la noche lenta del amor.
Ya no hay nada que temer, ya no hay nada que enseñar
se precipita mi debilidad, hacia la noche lenta del amor.




[Los Habitantes chords][Los Habitantes cifra]
© LaCuerda.net · aviso legal · privacidad · es · en · pt · contacto