Acordes de Guitarra » E »Enrique Bunbury » ...y Al Final (Tab)

...y Al Final
Enrique Bunbury

Letras, Acordes y Tabs para Guitarra, Bajo y Ukulele

  • E|-12--14--|--14h16------12-14--|--14h16--16------18--18h19------18--16---|
    B|-5---7---|--7h-9-------5--7---|--7h-9---9-------11--11h12------11--9----|
    G|---------|--------------------|-----------------------------------------|
    
    
    E|-18h19--16----11--11----11h14--12-|-12--11------11--11------11h14--12---|
    B|-11h12--9-----4---4-----4h-7---5--|-5---4-------4---4-------4h7----5----|
    G|----------------------------------|-------------------------------------|
    
    
    E|-11--z--12--14-|-14h16--z--12--14-|-14h16--16------18--18h19------18--16-|
    B|-4---z--5---7--|-7h-9---z--5---7--|-7h-9---9-------11--11h12------11--9--|
    G|---------------|------------------|--------------------------------------|
    
    
    E|-14h16--16------18--18h19--18-16-|-18h19--16------11--11------11h14--12--|
    B|-7h-9---9-------11--11h12--11-9--|-11h12--9-------4---4-------4h-7---5---|
    G|---------------------------------|---------------------------------------|
    
    
    
  •      Am           Dm       Am        
    Permite que te invite a la despedida
             F                            C
    No importa que no merezca mas tu atención
       E                           Am
    Así se hacen las cosas en mi familia
     F                E(rasg. F D E)  (C) Am
    Así me enseñaron  a que las hiciera yo
      Am                    Dm          Am
    Permite que te dedique la última línea
      F                                 C
    No importa que te disguste esta canción
            E                           Am 
    Así mi conciencia quedará más tranquila
        F   E(rasg: F D E) ( C)  Am
    Así en esta banda decimos adiós
    
    ESTRIBILLO 
        F                              Am
    Y al final te ataré con todas mis fuerzas
    
  • MI correo está A LA orden.
    
       G#m           C#m       G#m
    Permite que te invite a la despedida
          E                            B
    No importa que no merezca más tu atención
       D#7                           G#m
    Así se hacen las cosas en mi familia
     C#m                G#m   D#7      G#m
    Así me enseñaron  a que las hiciera yo
        G#m           C#m       G#m
    Permite que te dedique la última línea
          E                            B
    No importa que te disguste esta canción
       D#7                           G#m
    Así mi conciencia quedará más tranquila
    C#m         G#m   D#7        G#m
    Así en esta banda decimos adiós
    
    ESTRIBILLO
    
  • SOL#m          DO#m         SOL#m
    Permite que te invite a la despedida
    MI                                  SI
    No importa que no merezca mas tu atencion
          RE#                    SOL#m
    Asi se hacen las cosas en mi familia
    MI              RE#       SI       SOL#m
    Asi me enseýaron a que las quisiera yo
    
    SOL#m          DO#m         SOL#m
    Permite que te dedique la ultima linea
    MI                                  SI
    No importa que te disguste esta cancion
          RE#                    SOL#m
    Asi mi conciencia quedara mas tranquila
    MI              RE#       SI       SOL#m
    Asi en esta banda decimos adios
    
              MI
    ... Y al final
    
  •   F                 Am                E
    I-1---------------I-0---------------I-0---------------I
    I-1---------------I-1---------------I-0---------------I
    I-2---------------I-2---------------I-1---------------I
    I-3---------------I-2---------------I-2---------------I
    I-3---------------I-0---------------I-2---------------I
    I-1---------------I-0---------------I-0---------------I
    
      Am                F                 Am
    I-0---------------I-1---------------I-0---------------I
    I-1---------------I-1---------------I-1---------------I
    I-2---------------I-2---------------I-2---------------I
    I-2---------------I-3---------------I-2---------------I
    I-0---------------I-3---------------I-0---------------I
    I-0---------------I-1---------------I-0---------------I
    
     Dm                 E                 Am
    I-1---------------I-0---------------I-0---------------I
    I-3---------------I-0---------------I-1---------------I
    I-2---------------I-1---------------I-2---------------I
    
  • Intro: G#m
    G|----------------------------------------
    D|---4h6h4--------------------------------
    A|----------6----6----6----6----6---------
    E|------------4----4----4----4------------
    G#m            C#m           G#m
    Permite que te invite a la despedida
        E                             B
        No importa que no merezca más tu atención
    D|----------------------------------------
    A|---2---4---4/7------7---6---6---4-------
    E|-----------------7----------------------
        D#                        G#m
        Así se hacen las cosas en mi familia
    D|----------------------------------------
    A|---------------/4---4---2---------------
    E|---7---6---7----------------------------
        E                 D#      B        G#m
        Así me enseñaron a que las hiciera yo
    D|----------------------------------------
    
  • B I----------------------------------------I
    G I----------------------------------------I
    
    e I-11-11-14-12-12-11------11-11-14-12-11--I
    B I----------------------------------------I
    G I----------------------------------------I
    
    Gtr1:
    e I-12-14-16-12-14-16-16-19-19-18-16-19-16-I
    B I----------------------------------------I
    G I----------------------------------------I
    
    Gtr2:
    e I---------------------------------------9---------I
    B I----------------12-12-12-11-9-12-12-12---12-12-9-I
    G I-------------------------------------------------I
    
    
    Gtr1:
    e I-11-11-14-12-12-11------11-11-14-12-11--I
    
  • Intro:
    G|:-----------------------------------------------------:|
    D|:-----------------------------------------------------:|
    A|:-----------6-----------6-----------6-----------6-----:|
    E|:-----4-----------4-----------4-----------4-----------:|
    
    Permite que te invite a la despedida,
    G|:-----------------------------:|
    D|:-----------------------------:|
    A|:-----------4-----------6-----:|
    E|:-----4-----------4-----------:|
    
    No importa que no merezca más tu atención,
    G|:-----------------------------------:|
    D|:-----------------------------------:|
    A|:-----7-----------------9--7--------:|
    E|:-----------7-----7-----------9-----:|
    
    Así se hacen las cosas e mi familia,
    G|:-----------------------------------:|
    D|:-----------------------------------:|
    A|:-----6------------------6----------:|
    E|:------------6-----4----------------:|
    
    Así me enseñarón a que las hiciera yo,
    G|:-----------------------------------:|
    D|:-----------------------------------:|
    A|:-----7-----6-----4-------------6---:|
  • +
    ¡Colabora con nosotros!
    Envíanos tu versión de esta canción

Letra de ...y Al Final
Verso 1
Permite que te invite a la despedida
No importa que no merezca más tu atención
Así se hacen las cosas en mi familia
Así me enseñaron a que las hiciera yo.
Verso 2
Permite que te dedique la última línea
No importa que te disguste esta canción
Así mi conciencia quedará más tranquila
Así en esta banda decimos adiós.
... Y al final
Te ataré con todas mis fuerzas
Mis brazos serán cuerdas para bailar este vals.
... Y al final
Quiero verte de nuevo contenta
Sigue dando vueltas si aguantas de pie.
Verso 3
Permite que te explique que no tengo prisa
No importa que tengas algo mejor que hacer
Así nos podemos pegar toda la vida
Así si me dejas no te dejaré de querer.
... Y al final
Te ataré con todas mis fuerzas
Mis brazos serán cuerdas para bailar este vals.
... Y al final
Quiero verte de nuevo contenta
Sigue dando vueltas si aguantas de pie.
Interludio:
( E - G#m - D# - G#m ) x2
Final:




[...y Al Final chords][...y Al Final cifra]
© LaCuerda.net · aviso legal · privacidad · es · en · pt · contacto