Acordes de Guitarra » E »Enrique Bunbury » Aunque no sea conmigo (Tab)

Aunque no sea conmigo
Enrique Bunbury

Letras, Acordes y Tabs para Guitarra, Bajo y Ukulele

  • INTRO Am  D  G  Am   D#m7  Em
    
    
    Em           Am
    A placer,
               D               Em     Am
    puedes tomarte el tiempo necesario
                  D                 G
    que por mi parte yo estare esperando
                 C
    el día en que te decidas a volver
             Am                B
    y ser felíz como antes fuimos
    
             Em  Am
    Se muy bien
              D                        Em  Am
    que como yo estaras sufriendo a diario
              D                        G
    la soledad de dos amantes que al dejarse
    
  • Em       Am
    A placer,
                D7           Em     Am
    puedes tomarte el tiempo necesario
                  D7                G
    que por mi parte yo estare esperando
        Cmaj7                  F#m
    el día en que te decidas a volver
                      B7
    y ser felíz como antes fuimos
    
    Em           Am
    Se muy bien
           D7                   Em     Am
    que como yo estaras sufriendo a diario
              D7               G
    la soledad de dos amantes que al dejarse
       Cmaj7             F#m
    estan luchando cada quíen
                  B7
    
  • Intro:LAm7-D7b9-Gmaj7-LAm7-D7b9-E7//Em/F#
    
    Em
    A placer,
    Am/F# B7d9                   Em
    puedes tomarte el tiempo necesario
    Am7        D7                   Gmaj7
    que por mi parte yo estare esperando
                 Cmaj
    el día en que te decidas a volver
             Am/F#            B7 
    y ser felíz como antes fuimos
    
             Em  Am/F#
    Se muy bien
            B7d9                    Em
    que como yo estaras sufriendo a diario
    Am7     D7                     Gmaj
    la soledad de dos amantes que al dejarse
    Cmaj
    
  • LA dedico A
    
                    "KARINA TAHYMI ALMARAZ MUÑOS"
    
    ella me dedico LADY BLUE y poes aki regresando el favor,a parte
    q la rola dice cosas q.... bueno sha pa q les digo
    
    "Pero si ahora tienes
    tan solo la mitad
    del gran amor que aún te tengo
    puedes jurar que al que te quiere lo bendigo
    quiero que seas feliz
    aunque no sea conmigo"
    
    y dice asi:
    
    
    INTRO Am  D  G  Am   Bm7  Em  E7  x2
    
    
    
  •           Am  D7  G                  Am  D7   Em
    e|--------5---5---3-----------|-------5---5-------------|
    B|--------5---7---3-----------|-------5---7------0-0----|
    G|--------5---5---4---4-4h5-4-|-------5---5-------0-----|
    D|----------------5--5-5------|---------------2-2---2---|
    A|-----------5----5-----------|----------5----2---------|
    E|--3-4-5---------3-----------|-3-4-5-------------------|
    
              Am  D7  G                  Am  D7  Em
    e|--------5---5---3-----------|-------5---5---7--------------|
    B|--------5---7---3-----------|-------5---7---8--------------|
    G|--------5---5---4---4-4h5-4-|-------5---5---9---9-9--------|
    D|----------------5--5-5------|---------------9----9---------|
    A|-----------5----5-----------|----------5----7-7----7-------|
    E|--3-4-5---------3-----------|-3-4-5---------7--------8-7-0-|
    
    
         Em   Am
    A placer,
              D7             Em        Am
    
  • e|---------------3-----------|-----------------|
    B|------------7--3-----------|-----------7-----|
    G|--------7------4---4-4h5-4-|-------7------0--|
    D|--------7---7--5--5-5------|-------7---7--2--|
    A|--------5-5----5-----------|-------5-5----2--|
    E|--3-4-5--------3-----------|-3-4-5--------0--|
    
    e|--------------3-----------|----------------------|
    B|-----------7--3-----------|-----------7----------|
    G|-------7------4---4-4h5-4-|-------7--------------|
    D|-------7---7--5--5-5------|-------7---7--9-------|
    A|-------5-5----5-----------|-------5-5----7-------|
    E|-3-4-5--------3-----------|-3-4-5----------8-7-0-|
    
    
    Em
    A placer,
     Am          D7                Em
    puedes tomarte el tiempo necesario
     Am             D7                 G
    
  • +
    ¡Colabora con nosotros!
    Envíanos tu versión de esta canción
  • Tutorial
    HD
    Como tocar AUNQUE NO SEA CONMIGO en Guitarra HD
    2:35

Letra de Aunque no sea conmigo
A placer,
puedes tomarte el tiempo necesario
que por mi parte yo estare esperando
el día en que te decidas a volver
y ser felíz como antes fuimos
Se muy bien
que como yo estaras sufriendo a diario
la soledad de dos amantes que al dejarse
estan luchando cada quíen
por no encontrarse...
Y no es por eso
que haya dejado de quererte un solo día
estoy contigo aunque estes lejos de mi vida
por tu felicidad
a costa de la mia...
Pero si ahora tienes
tan solo la mitad
del gran amor que aún te tengo
puedes jurar que al que te quiere lo bendigo
quiero que seas felíz
aunque no sea conmigo
Y no es por eso
que haya dejado de quererte un solo día
estoy contigo aunque estes lejos de mi vida
por tu felicidad
a costa de la mia
Pero si ahora tienes
tan solo la mitad
del gran amor que aún te tengo
puedes jurar que al que te quiere lo bendigo
quiero que seas feliz
aunque no sea conmigo...




[Aunque no sea conmigo chords][Aunque no sea conmigo cifra]
© LaCuerda.net · aviso legal · privacidad · es · en · pt · contacto