Acordes de Guitarra » E »Enrique Bunbury » Alicia (Expulsada al país de las maravillas) (Tab)

Alicia (Expulsada al país de las maravillas)
Enrique Bunbury

Letras, Acordes y Tabs para Guitarra, Bajo y Ukulele

  •     Am                 C                          G
    
    e:I-0--0--0-0---0------0--0-----------0-0------------3--3--I
    B:I-1--1--1-1---1------1--1-----------1-1------------3--3--I
    G:I-2--2--2-2---2------0--0------0----0-0-------0----0--0--I
    D:I-2-----2------------2-----0h2------2-2---0h2------0--0--I
    A:I-0-------------2-3--3-----------3-----------------2-----I
    E:I-----------------------------------------------3--3-----I
    
      C                 G
       Un dia mas me quedare sentado aqui
      Dm                       C
       en la penumbra de un jardin tan extraño
      Dm                     C
       cae la tarde y me olvide otra vez
      Am            G   
       de tomar una determinación
    
    
         C              
    
  •    C
    alicia sortilegio de babia
           G
    en el fondo del espejo
    Em
    alicia ni supone ni piensa
            Am
    con la luna por cerebro
    
         C
    alicia en su pensamiento
                G
    tirando del hilo de su enredo
      Em
    alicia en el laberinto
                              Am
    sin minotauro me llama: ¡teseo!
    
      F
    alicia es siempre tan breve
    
  • C
    Alicia Sortilegio de babia
            G
    en el fondo del espejo
       Em
    Alicia ni supone ni piensa
        Am
    con la luna por cerebro
    
      C
    Alicia en su pensamiento
                G
    tirando del hilo de su enredo
      Em
    Alicia en el laberinto
             Am
    y un minotauro me llama teseo
    
      F
    Alicia es siempre tan breve
    
  • DO      
    Alicia sortilegio de Babia
    SOL
    en el fondo del espejo,
    MIm
    Alicia ni supone ni piensa
    LAm
    con la luna por cerebro...
    
    Sólo teclados:
    E-7*5-3-3-5-3-2-3-5-7-5------------
    B----------------------------------
    G----------------------------------
    D----------------------------------
    A----------------------------------
    E----------------------------------
    
    DO
    Alicia en su pensamiento
                SOL 
    
  • AL PRINCIPIO DE LA ROLA SOLO SE ESCUCHA LA GUITARRA
    SOLAMENTE
    
    AQUÍ ENTRA EL BAJO
    
    ALICIA ES SIEMPRE TAN BREVE QUE YA HA TERMINADO
       F                                       Am
    G-----------------------------------------------
    D-----------------------------------------------
    A-----------------------------------------------
    E--1---------------------------------------5----
    
    ALICIA DICE QUE TE QUIERE CUANDO YA TE HA ABANDONADO
       F                                        Am
    G-----------------------------------------------
    D-----------------------------------------------
    A-----------------------------------------------
    E--1----------------------------------------5---
    
    
      ALICIA ESPULSADA AL PAÍS DE LAS MARAVILLAS
      D                                F#m
    G------------------------------------------------
    D------------------------------------------------
    A-5------5------------5-------5------------------
    E----------------------------------2--2-----2--2-
    
       PARA ALICIA
  •                                     Alicia - Enrique Bunbury                                     
    
    
                                                             
    C||--76----62----76----62----|--76----62----76----62----|
    C||--------------------------|--------------------------|
    C||--------------------------|--------------------------|
    C||--------------------------|--------------------------|
    C||--------------------------|--------------------------|
    C||--------------------------|--------------------------|
    
    
                                                          
    --76----62----76----62----|--76----62----76----62----|
    --------------------------|--------------------------|
    --------------------------|--------------------------|
    --------------------------|--------------------------|
    --------------------------|--------------------------|
    --------------------------|--------------------------|
    
    
                                                          
    --76----62----76----62----|-
  • +
    ¡Colabora con nosotros!
    Envíanos tu versión de esta canción

Letra de Alicia (Expulsada al país de las maravillas)
Un dia mas me quedare sentado aqui
en la penumbra de un jardin tan extraño
cae la tarde y me olvide otra vez
de tomar una determinación
Alicia Sortilegio de babia
en el fondo del espejo
Alicia ni supone ni piensa
con la luna por cerebro
Alicia en su pensamiento
tirando del hilo de su enredo
Alicia en el laberinto
y un minotauro me llama teseo
Alicia es siempre tan breve
que ya ha terminado
Alicia dice que te quiere
cuando ya te ha abandonado.
Alicia expulsada
pais de las maravillas
Para Alicia hoy
es siempre todavia
Alicia viajando entre lunas
de charla con musarañas
Alicia tejiendo las nubes
con tela que nunca se acaba
Alicia es siempre tan breve
que ya ha terminado
Alicia dice que te quiere
cuando ya te ha abandonado.
Alicia expulsada
pais de las maravillas
Para Alicia hoy
es siempre todavia
Alicia expulsada
pais de las maravillas
Alicia expulsada
pais de las maravillaaaas aaahh
aaahhh aaahh
E7/G
Acordes Raros
e:I--3--I--3--I
G:I--0--I--1--I
A:I--2--I--2--I
Bueno esta version de Alicia viene en el disco de pequeño
en vivo
Si tienen dudas o correcciones mandenmelas a mi mail.




[Alicia (Expulsada al país de las maravillas) chords][Alicia (Expulsada al país de las maravillas) cifra]
© LaCuerda.net · aviso legal · privacidad · es · en · pt · contacto