Acordes de Guitarra » E »Enrique Bunbury » Lady Blue (Tab)

Lady Blue
Enrique Bunbury

Letras, Acordes y Tabs para Guitarra, Bajo y Ukulele

  •  Bb Bb7 Cm Dm F  D# D#m G# Gm
    -1--1---3--5--1--6--6---4--3----
    -3--3---4--6--1--8--7---4--3----
    -3--1---5--7--2--8--8---5--3----
    -3--3---5--7--3--8--8---6--5----
    -1--1---3--5--3--6--6---6--5----
    --------3-----1---------4--3----
    
    
    Verso 1
    
    Bb              Cm                    Dm
    Hoy voy a empezar     hoy es el comienzo del final
                     F      
    del cocodrilo, astronauta soy en órbita lunar
    Bb                   Dm                      D#      
    Y ahora todo es mejor, la lluvia de asteroides ya pasó
                          Bb   F       
    no fue para tanto y desde aquí 
    
    
  • A                   Bm            F#m      
    Hoy voy a empezar     hoy es el comienzo del final
                    E      
    del cocodrilo, astronauta soy en orbita lunar
    A                    F#m                         D      
    Y ahora todo es mejor, la lluvia de asteroides ya pasó
                          A---E       
    no fue para tanto y desde aquí 
    
    D               A
    Todo es insignificante
                    F#m
    nada es tan preocupante
                     E      
    y el espacio es un lugar tan vacío sin ti
    
    
    Estribillo:
    
    A         C#m      
    
  • A Bm  C#m E  D* F#m G* A7 Dm
    0  2   4  0  5   2  3  0   1
    2  3   5  0  7   2  3  2   3
    2  4   6  1  7   2  4  0   2
    2  4   6  2  7   4  5  2   0
    0  2   4  2  5   4  5  0   0
    X  X   X  0  X   2  3  X   X
    
    LA INTRO VA ALGO ASI
    
       ,------------,------------,---- EN ESTOS “A” EL RASGUEO
      ,            ,            ,      ES HACIA ABAJO Y LENTOS
    -0-------------0------------0-
    -2-------------2------------2-
    -2-------------2------------2-
    -2-------------2------------2-
    -0-2-4-2-------0-2-4-2---0--0-
    ---------2-0-----------2------
    
    
    
  • Intro (G)
    
                       Eb
    Hoy voy a empezar
                        Dm
    Hoy es el comienzo del final
                       F
    el cocodrilo astronauta soy
                           Bb
    en orbita lunar.
    
                           Dm
    Y ahora todo es mejor
                                  Eb
    la lluvia de asteroides ya pasó
    
    no fue para tanto
               Dm  F  Eb
    y desde aquí.
    
    
  • A              Bm                  C#
    Hoy voy a empezar, hoy es el comienzo del final
                     E                        A
    del cocodrilo, astronauta soy en orbita lunar
                       C#                            D
    Y ahora todo es mejor, la lluvia de asteroides ya pasó
                             A    E       D
    no fue para tanto y desde aquí 
    
                    A         
    todo es insignificante
                  F#m
    nada es tan preocupante
                       E      
    y el espacio es un lugar tan vacío sin ti
    
    
    Estribillo:
    
    A          C#      
    
  • A                B                    C#m
    Hoy voy a empezar, hoy es el comienzo del final
                     E
    del cocodrilo, astronauta soy en orbita lunar.
    A                     C#m
    Y ahora todo es mejor, la lluvia de asteroides
         D                              A     E
    ya pasó, no fué para tanto y desde aqui...
    D                 A                     F#m
    Todo es insignificante, nada es tan preocupante
                         E
    y el espacio es un lugar tan vacio sin ti.
    
    A           C#m
    Lady, lady blue
    D|-11h12-11h12-11h12-11h12--
    G
    sin control, sin dirección
    D|-11h12-11h12-11h12-11h12--
        D                E
    
  • Esta es mi interpretacion para Bajo de Lady Blue,
    es la forma básica de tocarla, no olvien meterle unos buenos
    arreglos para darle más feeling:
    
    Tema: Lady Blue
    Interprete: Enrique Bunbury
    Albúm: Flamingos
    Instrumento: Bajo Eléctrico
    
    Intro (Slap) x4
    G|--------------------|
    D|----5----5---5---5--|
    A|--------------------|
    E|-----3------------3-|
    
    Verso (Hoy voy a empezar...)
    G|------------------------------------------|
    D|------------------------------------------|
    A|-1-1-11--1-1-1-11-(2)-3-3-33--3-3-3-33-(4)|
    E|------------------------------------------|
    
    G|-------------------------------------|
    D|-------------------------------------|
    A|-5-5-55-5-5-5-55---------------------|
    E|-----------------(0)-1-1-11-1-1-1-11-|
    
    G|----------------------------------------|
    D|----------------------------------------|
    A|-1-1-11--1-1-1-11-(3)-5-5-55--5-5-5-55--|
    E|----------------------------------------|
    
    G|---------------------------------------|
    D|---------------------------------------|
    A|---6
  •                                                            
    C||------------------|--42--42--42-42-42--42--42--42--42--|
    C||------------------|--46------40----------------40------|
    C||------------------|----------------------------46------|
    C||------------------|------------------------------------|
    C||------------------|------------------------------------|
    C||------------------|------------------------------------|
    
    
                                                                              
    --42--42--42--42--42-42-42--42--42--|--42--42--42-42-42--42--42--42--42--|
    ----------40----------------40------|--46------40----------------40------|
    --46------------------------46------|----------------------------46------|
    ------------------------------------|------------------------------------|
    ------------------------------------|------------------------------------|
    ------------------------------------|------------------------------------|
    
    
                                     
  • +
    ¡Colabora con nosotros!
    Envíanos tu versión de esta canción

Letra de Lady Blue
Verso 1
Hoy voy a empezar hoy es el comienzo del final
del cocodrilo, astronauta soy en órbita lunar
Y ahora todo es mejor, la lluvia de asteroides ya pasó
no fue para tanto y desde aquí
todo es insignificante
nada es tan preocupante
y el espacio es un lugar tan vacío sin tí
Estribillo:
Lady, Lady Blue
Sin control, sin dirección
La luz se fue ¿a donde voy?
Lady, Lady Blue
Sin control, sin dirección
La luz se fue ¿a donde voy?
Verso 2
No volverás a ver la mirada triste
del chico que observaba el infinito
Llamando a la estación: perdemos combustible
y la tripulación se quiere despedir desde aquí
Dejo esta grabación a falta de algo mejor
la soledad es un lugar tan vacío sin tí
Estribillo:
Lady, Lady Blue
Sin control, sin dirección
La luz se fue ¿a donde voy?
Lady, Lady Blue
Sin control, sin dirección
La luz se fue ¿a donde voy?
Desde hoy
no temas nada, no hace falta ya
todo se fue con el huracán
nada queda
de las vueltas que el tiempo nos dio
todo se fue con el huracán
Final:
Repite el final.............y listo!!!
ometal666@hotmail.com Viva el Rock / Aku Soku Zan




[Lady Blue chords][Lady Blue cifra]
© LaCuerda.net · aviso legal · privacidad · es · en · pt · contacto