Acordes de Guitarra » E »Enrique Bunbury » Infinito (Tab)

Infinito
Enrique Bunbury

Letras, Acordes y Tabs para Guitarra, Bajo y Ukulele

  •              B7
    Me calaste ondo
                 Em      G
    Y ahora me dueles
                                         Am
    Si todo lo que nace perece del mismo modo
                  Em - B7                   Em
    Un momento se va      y no vuelve a pasar.
    
                  B7
    Y decian que bonito
                 Em
    era vernos pasear
                    B7
    queriendonos infinito
                           Em
    pensaban, siempre sera igual
                G
    Como lo permitimos
                             Am
    
  •    Em          B7
      ME CALASTE HONDO
                    Em
      Y AHORA ME DUELE
      G                      E
      SI TODO LA QUE NACE PERECE
                  Am
      DEL MISMO MODO
      Em             B7               Em
      UN MOMEMTO SE VA Y NO VUELVE A PASAR
    
      Em                B7              Em
      Y DECIAN QUE BONITO ERA VERNOS PASEAR
                          B7
      QUERIENDONOS INFINITO
                              Em
      PENESABAN SIEMPRE SERA IGUAL
         G             E
      COMO NO DESIDOMOS ESTO
                        Am
    
  •                 Em                           B 
    e|------------|-----------------------------------------------------|
    B|------------|-----------------------------------------------------|
    G|------------|-9-8-5-4----/12-11-9----------9-8-----/12-11-9-11-12-|
    D|------------|---------------------9------------11-9---------------|
    A|------------|-----------------------------------------------------|
    E|------------|-----------------------------------------------------|
        Me calaste hondo...         ..y ahora me dueles
         
        G                        Em                 Am
    e|------------------------------------------------------------------|
    B|------------------------------------------------------------------|
    G|-14/16-16-16-16-16-16-16/17-17-16-16\14--14-14-14-13-14-----------|
    D|------------------------------------------------------------------|
    A|------------------------------------------------------------------|
    E|------------------------------------------------------------------|
            Si todo lo que nace perece del mismo modo
    
                 Em           B7                  Em
    e|------------------------------------------------------------------|
    
  •                 Em                        B
        Me calaste hondo              y ahora me dueles
    e|------------------------------------------------------------------|
    B|------------------------------------------------------------------|
    G|------------------------------------------------------------------|
    D|----------------2-1-0------/5-4-2-----2-1--0-----/5-4-2-4-5-------|
    A|----------------------2-----------2----------2--------------------|
    E|------------------------------------------------------------------|
        G                        Em                 Am
        Si todo lo que nace perece del mismo modo
    e|------------------------------------------------------------------|
    B|------------------------------------------------------------------|
    G|------------------------------------------------------------------|
    D|-7/9-9-9-9-9-9-9/10-10-9-9\7-7-7-6-7-7-7-7-7----------------------|
    A|------------------------------------------------------------------|
    E|------------------------------------------------------------------|
                 Em           B7                  Em
        Un momento se va y no vuelve a pasar
    e|------------------------------------------------------------------|
    B|------------------------------------------------------------------|
    
  • Compás 3/4, con un 'tempo' aprox. de 82 en un 'fretless', aquí va:
    
    INTRO/CORO:                                                                       
    
    |---------|--------|----------|--------|--------|--------|--------|
    |---------|--------|----------|--------|--------|--------|--------|
    |---------|-2------|-2---5-/7-|-----2--|--------|-----5-/|-7------|
    |---------|-----2--|----------|-0------|-0---2--|-3------|-----3--|
    Me calaste hondo        	 Me dueles..	    Si todo..
                                           
    |---------|---------|--------|--------|--------|---------|
    |---------|---------|--------|--------|--------|---------|
    |----7----|---------|-----2--|-----2--|-----2--|-------2-|
    |-5-----7-|-5---5--/|-0------|-2------|-0------|-0---2---|
                  Un momento...      Y no vuelve....
                                                                        
    VERSOS:
                                                                          
    |--------|----------%%--------|
  • +
    ¡Colabora con nosotros!
    Envíanos tu versión de esta canción

Letra de Infinito
Me calaste ondo
Y ahora me dueles
Si todo lo que nace perece del mismo modo
Un momento se va y no vuelve a pasar.
Y decian que bonito
era vernos pasear
queriendonos infinito
pensaban, siempre sera igual
Como lo permitimos
que es lo que hicimos tan mal
fue este orgullo desgraciado
que no supimos tragar
Y engañame un poco al menos
di que me quieres aun mas
que durante todo este tiempo
lo has pasado fatal
que ninguno de esos idiotas
te supieron hacer reir
y que el unico que te importa es este pobre infeliz.
Me calaste ondo........
Y el dia que yo me muera
y morire mucho antes que tu
se llore frenre a mi ataud
que esta herida en mi alma
mo llego a cicatrizar
y estara deseperada
hasta que te vea llegar.
Me calaste ondo.....
Bueno hay esta la rola.....Son los mismos acordes en toda
la rola....pero quise poner toda la letra, por que apesta
cuando no la ponen completa. Nos vemos.




[Infinito chords][Infinito cifra]
© LaCuerda.net · aviso legal · privacidad · es · en · pt · contacto