Tablatura para Guitarra de Divididos: Spaghetti del rock
Conexión · Inscripción
Letras y Acordes
Pantalla Completa
Imprimir
Versión Texto
Añadir Favorito
Otras Versiones

Mostrar Diagramas
Desfile Automático
Manipular Acordes
Formato del Texto


Spaghetti del rock(TAB)

Divididos

calidad:
divi0458
AUTOR: Diego Arnedo, Ricardo Mollo
ALBUM: Narigon del Siglo, Yo Te Dejo Perfumado en la Esqu (2000)
Enviado por Fernando
Hola!!Bueno esta es mi transcripción del solo de Spaguetti del Rock,pero
de la versión que hace Mollo en Encuentro en el Estudio.
Los acordes los pueden sacar de las otras transcripciones.
Para enganchar bien el ritmo solo hay que escucharlo e ir tocando encima.

h:ligar nota
s:arrastrar
b:subir un tono
p:ligado descendente
r:bajar tono
XX:nota muerta/tapar con la mano la cuerda y tocar


e|---------------------------9----------------------------------------------
B|-----------------------------12p9-----------------------------------------
G|------------9----9--11b13----------11b13r11p9--------------------9--------
D|----------9---11-------------------------------11p9-------------9--9h11-9-
A|----7-9s11-------------------------------------------11s9-7-9s11----------
E|7h9-----------------------------------------------------------------------

e|--------9------------------------------------9----------9-11--------------
B|--12b14---12p9---------------------12----------12-----------12------------
G|----------------11b13r11p9---11b13----13r11-------11b13---------11b13r11p9
D|--------------------------------------------------------------------------
A|--------------------------------------------------------------------------
E|--------------------------------------------------------------------------

e|--------------------------------12h14-12h14-12----------------------------
B|--------------------------------12h14-12h14-12----------------------------
G|----------------------9---------------------------------------------------
D|--11p9---------------9-9h11-9------------------XX-9h11-9------------------
A|--------11s9-7--9s11-----------------------------------------7-9-9s11-9---
E|---------------------------------------------------------7h9--------------
Este fichero es trabajo propio de su transcriptor y representa su interpretación personal de la canción. El material contenido en esta página es
para exclusivo uso privado, por lo que se prohibe su reproducción o retransmisión, así como su uso para fines comerciales.

© LaCuerda.net · Aviso Legal · Privacidad