Acordes de Guitarra » D »Divididos » Sobrio A Las Piñas (Tab)

Sobrio A Las Piñas
Divididos

Letras, Acordes y Tabs para Guitarra, Bajo y Ukulele

  • (E B A G E)
    
    Riff:
    E|----------------|---------------|
    B|----------------|---------------|
    G|-------4-2------|o---4-2-------o| se repite lo que esta entre circulos
    D|-------4-2------|o---4-2-------o| la cantidad de veces necesaria para
    A|--2-2--2-0----2-|--2-2-0----2---| cubrir las estrofas y parte de el
    e|--0-0------3b-0-|--0-----3b-0---| estribillo
    Hacerlo con un movimiento bien ritmico de la mano y
    con fuerza para que suene
    
    
    con Riff
    
    Hay novedades
    en el titular
    exodo hepatico
    a la frontera con capital
    Charter de bebes
    
  • (E B A G E)
    
    Riff:
    E|----------------|---------------|
    B|----------------|---------------|
    G|-------4-2------|o---4-2-------o| se repite lo que esta entre circulos
    D|-------4-2------|o---4-2-------o| la cantidad de veces necesaria para
    A|--2-2--2-0----2-|--2-2-0----2---| cubrir las estrofas y parte de el
    e|--0-0------3b-0-|--0-----3b-0---| estribillo
    Hacerlo con un movimiento bien ritmico de la mano y
    con fuerza para que suene
    
    
    con Riff
    
    Hay novedades
    en el titular
    exodo hepatico
    a la frontera con capital
    Charter de bebes
    
  • esta es la forma correcta de rocar el tema de Divididos
    
      MI5 SI5 LA5 SOL5 MI5
    e-------------------------------
    b-------------------------------
    g-------------------------------
    d------4---2--------------------
    a--2---2---0---5---2------------
    E--0-----------3---0------------
    
    este es el rif de toda la cancion
    
    LA APLANADORA DEL ROCK ES DIVIDIDOS LA PUT@QUE LO PARIO!!
    
    para cualquier consulta elsensi_23@hotmail.com
    
                      chauuuuu
  • Intro
    G|----|----|----|---------------|
    D|----|----|----|-2---2---------|
    A|----|----|----|---------------|
    E|----|----|----|--0-3--3-2-3-0-|
    
    G|---------------|---------------|
    D|-2---2---------|-2---2---------|
    A|---------------|---------------|  x2
    E|--0-3--3-2-5-0-|--0-3--3-2-3-0-|
    
    Verso
    G|---------------|---------------|
    D|-2---2---------|-2---2---------|
    A|---------------|---------------|  x8
    E|--0-3--3-2-5-0-|--0-3--3-2-3-0-|
    
    Coro:
    G|----------------------|---------------|--------------|-------------------|---
    D|----------------------|-2---2---------|-2---2--------|-------------------|---
    A|-------------555555---|---------------|--------------|----------55555555-|---
    E|-32-32-32-32--------02|--0-3--3-2-3-0-|--0-3--3-2-3--|-33333333----------|0~~
    
    Intervalo
    G-|----|---------------|
    D-|----|-2---2---------|
    A-|----|---------------|
    E~|~~~~|--0-3--3-2-3-0-|
    
    G|---------------|---------------|
    D|-2---2---------|-2---2---------|
    A|---------------|---------------|  x2
    E|--0-3--3-2-5
  • R:  Ride
    H:  hi hats entreabiertos
    C:  Crash
    S:  Redoblante (snare drum)
    T1: Tom 1
    T2: Tom 2
    TP: Tom de piso
    B:  Bombo de pie
    o.:flams
    Entrada
      1   2   3   4
    H:----------------
    S:--o.----o.—-o.—-(flams)
    B:o------o---o----
    
    Intro               fill
    
       1   2   3   4    1   2   3   4
    
    H :X---X---X---X---|X---X---X---X---
    S :----o-------o---|----o-----------
    T1:----------------|----------o-----(lo hace con las dos manos,)
    T2:----------------|----------o-o---(como una vuelta con las dos manos)
    TP:----------------|------------o-o-(
    B :o-----o-o-----o-|o-----o-o-------
    
    Hay novedades...
    
    Base versos         fill
    
       1   2   3   4    1   2   3   4
    
    H :X---X---X---X---|X---X---X---X---
    S :----o-------o---|----o-------oo--
    T1:----------------|--------------o-
    T2:----------------|----------------
    TP:----------------|----------------
    B :o-----o-o-----o-|o-----o-o-------
    
    Quien se ha tomado todo el vino
    
    Estribillo( hay compases con ride y con hihat)
    
    
  • +
    ¡Colabora con nosotros!
    Envíanos tu versión de esta canción

Letra de Sobrio A Las Piñas
Riff:
Hacerlo con un movimiento bien ritmico de la mano y
con fuerza para que suene
con Riff
Hay novedades
en el titular
exodo hepatico
a la frontera con capital
Charter de bebes
hacia ese bao ensordecido
de ingresos brutos
beso al anden
Estribillo:
Quien, se ha tomado todo el vino
quien, se ha tomado todo el vino
Sobrio a las piñas
dejo la flor,
rouge en la boca
paz en colon
se amilano
No hay mas lagunas
ni botelleros,
na hay mas carozos,
ni correrias
paro el remis
Quien, se ha tomado todo el vino
quien, se ha tomado todo el vino
Quien, se ha tomado todo el vino
quien, se ha tomado todo el vino
Quien, se ha tomado todo el vino
quien, se ha tomado todo el vino




[Sobrio A Las Piñas chords][Sobrio A Las Piñas cifra]
© LaCuerda.net · aviso legal · privacidad · es · en · pt · contacto
DINAMICO