Acordes de Guitarra » D »Divididos » Salir a asustar (Tab)

Salir a asustar
Divididos

Letras, Acordes y Tabs para Guitarra, Bajo y Ukulele

  •                  (D#9-Eb9)
    
    
    
               E9                                   F9
                  Salir a asustar te protege más
               E9                                   F9
                  En esta era de la boludez
               E9                                   F9
                  Beso y cachetazo ¿que es real?
               E9                                   F9
                  Tata dios sin mate, mochila  genital
    
    
                    G9-Ab9-A9-Bb9-B9
    
                    Galopera
    
                    Paranoia
    
    
  • Intro:
    
    G-|---------------------|----------------------|   
    D-|---------------------|-------------2/14~----|  
    A-|---------------------|----------------------|
    E-|-0--0--0-0--0--0-0---|-0--0-0--0------------|
    
    
    G-|---------7h8h9--|-----------------|---------7h8h9--|-----------------|   
    D-|----------------|-----------------|---4-5-6--------|-----------------| 
    A-|----4-5-6-------|-----------------|-0-0-0-0--------|-0-0-5-5-4-4-2-2-|
    E-|-0-0-0-0--------|-0-0-4-4-5-5-6-7-|----------------|-----------------|
    
    G-|---------7h8h9--|-----------------|---------7h9-|-9-8-7-------9-8-7-------------|   
    D-|----------------|-----------------|----4-5-6----|-------9-8-7-------9-8-7/12/13-|
    A-|----4-5-6-------|-----------------|-0-0-0-0-----|-------------------------------|
    E-|-0-0-0-0--------|-0-0-4-4-5-5-6-7-|-------------|-------------------------------|  
    
    
    
    
    
        Salir a asustar te protege más..
    G-|---------7h8h9--|-----------------|---------7h8h9--|-----------------|   
    
  • +
    ¡Colabora con nosotros!
    Envíanos tu versión de esta canción

Letra de Salir a asustar
Salir a asustar te protege más
En esta era de la boludez
Beso y cachetazo ¿que es real?
Tata dios sin mate, mochila genital
Galopera
Paranoia
Cleptocracia
¡Grita el argentino!
Salir a asustar te protege más
En esta era de la boludez
Risa de canasto sin fantasía esta
Carpa pasajera, la esperanza va
Galopera
Paranoia
Cleptocracia
¡Grita el argentino!
Aguante B.Bca. y El Guanaco!!!
Esta se la dedico a todos los pibes de villa rosas...
fran, santi, kito,...
y a los del noroeste...
zeta y agus...
espero que les guste, cualquier puteada sera tomada en cuenta
chauuu!!!




[Salir a asustar chords][Salir a asustar cifra]
© LaCuerda.net · aviso legal · privacidad · es · en · pt · contacto
DINAMICO