Acordes de Guitarra » D »Divididos » Qué Ves (Tab)

Qué Ves
Divididos

Letras, Acordes y Tabs para Guitarra, Bajo y Ukulele

  •      G#         F        A#m        D?
    e| --3--      --1--     --5--     --2--
    B| --3--      --1--     --5--     --3--
    G| --4--      --2--     --5--     --2--
    D| --5--      --3--     --7--     --4--
    A| --5--      --3--     --7--     --5--
    E| --3--      --1--     --5--     --2--
    
    
    
    Intro: A#m - G# - D? - F
    
       A#m                       G#           D?   F
        El wawa de Troilo no quiere arrancar
       A#m                       G#           D?   F
        Falta envido y truco, chiste nacional.
       A#m                       G#           D?   F
        “Estamos en vena” grita el mayoral,
       A#m                       G#           D?   F
        y pagás el vale un dia despues.
    
  • Intro: (Am - G - D - F) x4
    
       Am                       G           D   F
        El wawa de Troilo no quiere arrancar
       Am                       G           D   F
        Falta envido y truco, chiste nacional.
       Am                       G           D   F
        'Estamos en vena' grita el mayoral,
       Am                       G           D   F
        y pagás el vale un dia despues.
    
       Am        G
        Que ves?
       Am            G
        Que ves cuando me ves?
       Am                     G       D   F
        Cuando la mentira es la verdad.
    
        La prensa de dios lleva poster central,
        el bien y el mal definen por penal.
    
  • Tabbed by Joaquín Birba
    
    
    Patrón A
    
    G-|------------------------------------------------------|
    D-|------------------------------------------------------|
    A-|---3--------7-7-5-3---------5-3-----0-----------------|
    E-|-5---5---5----------3-2-3-3-----3-2---2-(2)--1-0-1h3--|
    
    
    Patrón B
    
    G-|----------------------------------------------------------------------------------------|
    D-|---7---7----------------5--------7-7-7-----------------5---------7-7-7----------------5-|
    A-|---------7--5--3--0---5---5------------7--5--3--0----5---5-------------7--5--3--0---5---|
    E-|-5---5--------------3-------3--5-------------------3-------3--5-------------------3-----|
    
    continuación
    
    G-|-------------------------------------|
    D-|-------------------------------------|
    A-|---5--3--------0---------------------|
    E-|---------3--2-----2--(2)--1--0--1h3--|
    
    Patrón C
    
    G-|--9-------------------|
    D-|----9-10-9------------|
    A-|-----------10/7-------|
    E-|----------------8---5-|
    
        
  • A5                       G5           F#5   F
        El wawa de Troilo no quiere arrancar
       A5                      G5           F#5   F
        Falta envido y truco, chiste nacional.
        A5                 G5           F#   F
        “Estamos en vena” grita el mayoral,
       A5                       G5           F5   F
        y pagás el vale un dia despues.
    
       A5        G5
        Que ves?
       A5            G5
        Que ves cuando me ves?
       A5                     G5       F#5   F
        Cuando la mentira es la verdad.
    
    
        La prensa de dios lleva poster central,
        el bien y el mal definen por penal.
        Fía la chapita porron en Palomar
    
  • Bueno, aqui dejo este tema que esta muy bueno para tocarlo en el bajo
    
    El bajo entra a los 16 segundos empezado el tema
    
    G-|-------------|
    D-|-------------|
    A-|-------------|
    E-|----13/5-----|
    
    
    
        Am              G                 D
    G-|-----------------------------------------------------|
    D-|-------------7-------------------------7--------7----|
    A-|-----7------7--------5--------5----5--5-5-5--5-5-5---|
    E-|-5--5-5-5--5--5--3--3-3-3--3-3-3---------------------|
    
    
        F
    G-|-----------------|
    D-|-----------------|
    A-|-----3--------3--|
    E-|-1--1-1-1--1-1-1-|
    
    
    
        Am              G                 D
    G-|-----------------------------------------------------|
    D-|-------------7-------------------------7--------7----|
    A-|-----7------7--------5--------5----5--5-5-5--5-5-5---|
    E-|-5--5-5-5--5--5--3--3-3-3--3-3-3---------------------|
    
    
        F
    G-|-----------------|
    D-|-----------------|
    A-|-----3--------3--|
    E-|-1--1-1-1--1-1-1-|
    
    
    
    
    Estrofas (x4):
    
        Am              G                 D
    G-|--
  •       _____________________________________
         /
    +---+---------------------------------------+---+
    |   | 1 | 2 | 3 | 4 | 5 | 6 | 7 | 8 | 9 | 10| C |
    +---+---------------------------------------+---+
          _____________________________________/
    
    Intro:
     5     5    (4)   (4)   (4)b  (4)b   4     4*
     5     5    (4)   (4)   (4)b  (4)b   4     4*
     5     5    (4)   (4)   (4)b  (4)b   4     4*
     5     5    (4)   (4)   (4)b  (4)b   4     4*
    
    El wawah de troilo no quiere arrancar
    (6)(6)(6)(6)(6) 6  6  5  6 (6)(4)
    falta envido truco chiste nacional
    (6)(6)(6)(6)(7)(7) 7 (7)(6) 6 (6)
    estamos en veda grita el mayoral
    (6)(6)(6)(6)(6) 6  6  5  6 (6)(4)
    y pagas el vale un dia despues
    (6)(6)(6)(6)(7)(7) 7 (7)(6) 6 (6)
    
    Que ves que ves cuando me ves
     8 (8)    7  8  8  8 (9)(8)
    cuando la mentira es la verdad
    (6)(6)(6) 7 (8) 7 (7) 7 (6)
    que ves que ves cuando me ves
     8 (8)    7  8  8  8 (9)(8)
    cuando la mentira es la verdad
    (6)(6)(6) 7 (8) 7 (7) 7 (6)
    
    La prensa de dios lleva poster central
    (6)(6)(6)(6)(
  • +
    ¡Colabora con nosotros!
    Envíanos tu versión de esta canción

Letra de Qué Ves
e| --3-- --1-- --5-- --2--
B| --3-- --1-- --5-- --3--
G| --4-- --2-- --5-- --2--
D| --5-- --3-- --7-- --4--
A| --5-- --3-- --7-- --5--
E| --3-- --1-- --5-- --2--
El wawa de Troilo no quiere arrancar
Falta envido y truco, chiste nacional.
“Estamos en vena” grita el mayoral,
y pagás el vale un dia despues.
Que ves?
Que ves cuando me ves?
Cuando la mentira es la verdad.
La prensa de dios lleva poster central,
el bien y el mal definen por penal.
Fía la chapita porron en Palomar
cruzando la vía pa' poderla pasar.
Que ves?...
Guitarra con distorcion
Fía la chapita...
Que ves?...
Que ves?
Que ves cuando me ves?
Mentira es la última verdad.
Si tienen alguna duda aca esta mi correo abecevedo10@hotmail.com
espero que la partitura les guste, aguante DIVIDIDOS!!!!!!!!!!!!!!
Y la O.P.M ¡!!!




[Qué Ves chords][Qué Ves cifra]
© LaCuerda.net · aviso legal · privacidad · es · en · pt · contacto