Acordes de Guitarra » D »Divididos » Senderos (Tab)

Senderos
Divididos

Letras, Acordes y Tabs para Guitarra, Bajo y Ukulele

  • LAm        Em          LAm    Em
    Senderos en el chañar,
    LAm        Em          LAm    Em
    tu huella se ha de borrar,
    LAm     Em   LAm  Em  LAm       Em   LAm   Em
    perdiéndose           la de volver.
    
    El monte da sin pedir,
    el monstruo pide sin dar,
    con el cañón, con el fiscal.
    
    DO  SOL (G-F#) FA    DO    SOL
    Pero allá, donde duerme el sol,
    FA SOL  FA     LAm    SOL
    soñarás la huella que se fue.
    
    
    Vivir, camino a seguir,
    es como el río que va.
    Tu sueño está
    
  • Les aconsejo que la escuchen para tocarla
    creo que esta bastante bien suerte.
    
    Senderos en el chañar...
    ------------------------------------|
    ------------------------------------|
    ------------------------------------|X4
    -0--0--3--0--5s0-------0--0--3s5s0--|
    
    El monte da sin pedir, ...
    ------------------------------------------------|
    -5s7--5----------------5s7--5-------------------|
    ---------7---------------------7--5-------------|X4
    ------------0--0--3s5----------------0--0--3s5--|
    
    Pero allá,
    ----------9---11--9--------------------|
    ------10--10--12--10--9-----9--10-9----|
    ---10-----------------10--10-10----10--|
    -8-------------------------------------|
    
    donde duerme el sol,
    -------------------------5-------------|
    --------------3--------5---5------5----|
    ------------3---3----3----------5---5--|
    -3--2--1--1-------1-----------3--------|
    
    soñarás la huella que se fue.
    ---------------------------------------------------------|
    ------3------------------3s5--------------3---2---------
  • +
    ¡Colabora con nosotros!
    Envíanos tu versión de esta canción

Letra de Senderos
Senderos en el chañar,
tu huella se ha de borrar,
perdiéndose la de volver.
El monte da sin pedir,
el monstruo pide sin dar,
con el cañón, con el fiscal.
Pero allá, donde duerme el sol,
soñarás la huella que se fue.
Vivir, camino a seguir,
es como el río que va.
Tu sueño está
y vos también.
Pero allá, donde duerme el sol,
soñarás la huella que se fue.
(ya voy a subir el solo, estoy ene l tarbajo ahora y no tengo
la viola a mano, pero empieza de esta manera)
(despues sigue con una subida en la pentatonica... despues lo subo)
Silbando el viento borró,
sombra de aquel haz de luz.
Vengo de ayer, no soy ayer.
Pero allá, donde duerme el sol,
soñarás la huella que se fue.
EL MEJOR TEMA DEL DISCO... LEJOS!!!




[Senderos chords][Senderos cifra]
© LaCuerda.net · aviso legal · privacidad · es · en · pt · contacto
DINAMICO