Acordes de Guitarra » D »Divididos » Sábado (Tab)

Sábado
Divididos

Letras, Acordes y Tabs para Guitarra, Bajo y Ukulele

  • G7
      Acariciando lo aspero
         F#7
      El sabado pide un beso
                         E7 (o Riff A) 
      Besame, besame, besame 
      
      Dala vuelta y besame
      
      Besame y da la vuelta
    
    Es un buen numero el seis
    Te permitis llorar
    Te da asco el overol
    Y con un jean lo extrañas
    
    Con Riff A
    Sabado, Sabado
    Sabado, Sabado 
    
    
  • RIFF A
                                 
    |----------------------|---------------------|-----------------------|
    |----------------------|---------------------|------------------3-2--|
    |----------------------|---------------------|------------------4-2--|
    |---2-0---2-0----------|--2-0---2-0----------|--2-0---2-0------------|
    |-------------2-0------|------------2-0------|------------2-0--------|
    |-0---------------3-0--|----------------3-0--|----------------3------|
    
    SALIDA AL ESTRIBILLO      RIFF B 
    |-------0-0------|       |---------------------------------------------|   
    |---0-------0----|       |----------------------------------2----------|   
    |-0---0----------|       |------------------------------2-4---4-2-0-2--|   
    |----------------|       |---2-0-2----2-0-2----2-0-2-------------------|   
    |----------------|       |---------------------------------------------|   
    |----------------|       |-0--------0--------0-------------------------|   
    
    RIFF C                                       FINAL
    |------------------------------------------| |------------------------------------|
    |------------------------------------------| |-9--10--11--12--13--14--15--16--17--|
    
  • Riff A
                                 x3
    ||-0------------------3--|--0--0-------------||
    ||---5--2--2>4----2>0----|--------2--2>4-----||
    ||-------------2---------|----------------2--||
    ||-----------------------|--4--2-------------||
    ||-----------------------|--3--2-------------||
    ||-----------------------|-------------------||
    
    Riff B
    
    ||-------------7--7-6--6--5--5--3--3--0----0--1--2---||
    ||-7--7--5--5----------------------------------------||
    ||---------------------------------------------------||
    ||---------------------------------------------------||
    ||---------------------------------------------------||
    ||---------------------------------------------------||
    
    (Con Riff A o E7)
    No eran mas de seis
    
  • Arranca con una base que es casi el 90% del tema:
    
    1|----------------------|-----------------------|
    2|---5-4--------2-------|--5-4--------2-----2---|
    3|--------2-2h4---4-----|-------2-2h4---2h4-----|
    4|-0----------------0-3-|0----------------------|
    
    Nota: El cierre lo varia haciendo
    1|-----------|
    2|--5-4-3-2--|
    3|-----------|
    4|0----------|
    
    Despues viene la parte "acariciando lo aspero.."
    
    1|---------------------------|1|---------------|:
    2|----------2--55-x22--------|2|----------1--4-|
    3|----22-55--5--------x55-x2-|3|----11-44--2---|
    4|-33-----------------------3|4|-22------------|
    
    Continua con la parte del "Besame, besame, besame":
    
    1|--------------------|
    2|--------------------|
    3|--------------------|
    4|-00-3-00-3-00-5-3---|
    
    Hay parte del tema luego del "Besame, besame, besame..."
    donde se produce una bajada que es asi:
    
    1|-------------------------|
    2|-22----------------------|
    3|----55-22-11-00----------|
    4|----------------33-00-12-|
    
    Finalmente termina con la viola y el baj
  • sabadooooooooo a ver este temita, ya habia una version pero
    quiero hacer algunas modificaciones a ver que opinan,
    para empezar tiene una base muy constante y es asi:
    -----------------------------------
    ---5-------2--------5-------2---2--
    -----222-4---42-------222-4---4----
    -0-------------3--0----------------
    
    y cuando llega al estribo a la parte de acariciando lo aspero
     bla bla el sabado pide, viene esto:
    --------------------------------------------------
    ----------22-55-22----------------11-44-11--------
    ----22-55----------55-22----11-44----------44-11--
    -33----------------------22-----------------------
    
    besame,besame,besame lo haces de la misma forma que estaba
    publicado antes:
    -----------------
    ----------------
    ----------------
    -0-003-003-005--
    
    en una parte se produce un corte que es en bajada, que son
    estas notas:
    -------------------------
    -------------------------
    -77-55------------------- y adeltante con
    -------77-66-55-33-00-12- el estribo
    
    al final la viola va subiendo semit
  • +
    ¡Colabora con nosotros!
    Envíanos tu versión de esta canción

Letra de Sábado
Acariciando lo aspero
El sabado pide un beso
Besame, besame, besame

Dala vuelta y besame

Besame y da la vuelta
Es un buen numero el seis
Te permitis llorar
Te da asco el overol
Y con un jean lo extrañas
Con Riff A
Sabado, Sabado
Sabado, Sabado
Acariciando lo aspero...
Acariciando lo aspero
El sabado pide un beso
x3




[Sábado chords][Sábado cifra]
© LaCuerda.net · aviso legal · privacidad · es · en · pt · contacto