Acordes de Guitarra » D »Divididos » Que Pasa Conmigo (Tab)

Que Pasa Conmigo
Divididos

Letras, Acordes y Tabs para Guitarra, Bajo y Ukulele

  • E|----------------|
    B|----------------|
    G|----------------|
    D|----------------|
    A|---------7-9-5--|
    e|-5-7-9-7--------|
    
    Los acordes durante toda la cancion son:
    Bm Am
    Em Dm
    
    Tambien el solo se basa en esos acordes.
    
    intentaba tomar algo de pie
    a partir de esa molestia
    intentaba tomar algo de pie
    a partir de esa molestia
    Pregunté
    a vos te duele tambien
    te duele tocar
    
  • INTRO: [A5 - B5 - C#5 - B5 - E5 - F#5 - D5 - E5] X2
    
    
    TODO SOBRE: E7/9+
    Intentaba tomar algo de pie
    a partir de esa molestia
    intentaba tomar algo de pie
    a partir de esa molestia
    pregunte por vos también
    te duele dudar
    si el veneno enamora el dolor
    o maquilla el ángel lujurioso
    o maquilla el ángel lujurioso
    que pasa conmigo hoy
    a vos te duelo también
    o te hizo crack
    ese muñeco otra vez
    y ahí empiezo a entender
    que ya fui budín de pan
    y que me agrando 
    
  • Intro
    G|---------------------|x2
    D|---------------------|
    A|---------7-9-5-------|
    E|-5-7-9-7---------(5)-|
    
    Pre-Verso
    G|-----|
    D|-----|
    A|-----|
    E|-5/x-|
    
    Verso
    G|---------------------|x12
    D|-------99------------|
    A|-------------7-5-----|
    E|-5-5-7-----5-----7-6-|
    
    Coro ('Que pasa conmigo...') **No Hay Bajo**
    
    Verso
    G|---------------------|x12
    D|-------99------------|
    A|-------------7-5-----|
    E|-5-5-7-----5-----7-6-|
    
    Intro
    G|---------------------|x2
    D|---------------------|
    A|---------7-9-5-------|
    E|-5-7-9-7---------(5)-|
    
    Solo de Guitarra
    G|---------------------|x4
    D|-------99------------|
    A|-------------7-5-----|
    E|-5-5-7-----5-----7-6-|
    
    Verso
    G|---------------------|x12
    D|-------99------------|
    A|-------------7-5-----|
    E|-5-5-7-----5-----7-6-|
    
    Final
    G|----------------|
    D|----------------|
    A|---------7-9-5--|
    E|-5-7-9-7--------|
    
    Escuchá la canción para saber el ritmo
  • Intro (tambien se repite en el medio de la cancion)
    G|----------------------|
    D|----------------------|
    A|-----------7-9-5------|
    E|-5--7-9-7---------0---| x2
    
    G|----|
    D|----|
    A|----|
    E|-5/-|
    
    Versos, puentes (prestar atencion que hay partes que el bajo
    no se toca)
    G|--------18-18/19---------|
    D|--------18-18/19---------|
    A|-------------------------|
    E|-0--000----------5-0-3-5-| repetir las veces necesarias
    
    La cancion termina con la intro x1 (pero sin la nota Mi del 
    final, termina en Re)
  • +
    ¡Colabora con nosotros!
    Envíanos tu versión de esta canción

Letra de Que Pasa Conmigo
Los acordes durante toda la cancion son:
Tambien el solo se basa en esos acordes.
intentaba tomar algo de pie
a partir de esa molestia
intentaba tomar algo de pie
a partir de esa molestia
Pregunté
a vos te duele tambien
te duele tocar
si el veneno enamora el dolor
o maquilla el angel lujorioso
o maquilla el angel lujorioso
que pasa conmigo hoy
a vos te duelo tambien
o te hizo crack
ese muñeco tambien
y ahi empiezo a entender
que ya fui budin de pan
y que me agrando
con un poco de amor
por andar
oxide el corazon
voy alla
pero soy de aca ¡eh!
por andar
el corazon
voy alla
pero soy de aca
por andar
oxide el corazon
voy alla
pero soy de aca
por andar




[Que Pasa Conmigo chords][Que Pasa Conmigo cifra]
© LaCuerda.net · aviso legal · privacidad · es · en · pt · contacto