Acordes de Guitarra » D »Divididos » Sisters (Tab)

Sisters
Divididos

Letras, Acordes y Tabs para Guitarra, Bajo y Ukulele

  • Dm                            C
      Through the course of an embrace
    Bb                             F
      Our sisters felt a striking hand
    Dm                                       C
      Their fear was raised by the light of day
    Bb                                     F
      Their quiet rage sleeps with them tonight
    
               Dm                C
    We have a reason to ban our heart
    Bb                                F
      We have a reason to change our mind
    Dm                            C
      Through the course of an embrace
    Bb                             F
      Our sisters felt a striking hand
    Dm                                       C
      Their fear was raised by the light of day
    Bb                                     F
    
  • Introduccion
    
    Guitarra 1
    e|--5--x--5--x--5--x--5--x--5--x--5--x--5--x--5--|
    B|--6--x--6--x--6--x--6--x--6--x--6--x--6--x--6--|
    G|--7--x--7--x--7--x--7--x--7--x--7--x--7--x--7--|
    D|--7--x--7--x--7--x--7--x--7--x--7--x--7--x--7--|
    A|--5--x--5--x--5--x--5--x--5--x--5--x--5--x--5--|
    E|-----------------------------------------------|
    
    Guitarra 1
    e|--3--x--3--x--3--x--3--x--3--x--3--x--3--x--3--|
    B|--5--x--5--x--5--x--5--x--5--x--5--x--5--x--5--|
    G|--5--x--5--x--5--x--5--x--5--x--5--x--5--x--5--|
    D|--5--x--5--x--5--x--5--x--5--x--5--x--5--x--5--|
    A|--3--x--3--x--3--x--3--x--3--x--3--x--3--x--3--|
    E|-----------------------------------------------|
    
    Guitarra 1
    e|--1--x--1--x--1--x--1--x--1--x--1--x--1--x--1--|
    B|--3--x--3--x--3--x--3--x--3--x--3--x--3--x--3--|
    G|--3--x--3--x--3--x--3--x--3--x--3--x--3--x--3--|
    D|--3--x--3--x--3--x--3--x--3--x--3--x--3--x--3--|
    A|--1--x--1--x--1--x--1--x--1--x--1--x--1--x--1--|
    E|-----------------------------------------------|
    
    Guitar
  • esta es la tablatura completa del
    reef que se escucha durante todo el tema
    
    
    
    intro:
    
      Este es el ritmo que
      sigue durante todo el tema
       ___________________
      [                   ]
      [ x8][ x8][ x8][ x8][ x8][ x5]
    e|-5-x--5-x--1-x--1-x--5-x--5-x----------------------------6--10--8----3/5-5-5-5-5----5---3p0-0h1---1-0h1-1-|
    B|-6-x--5-x--3-x--1-x--6-x--5-x--------------------------6--------------------------------------------------|
    G|-7-x--5-x--3-x--2-x--7-x--5-x------5-5h7p5---5-5h7---7------10--8--3--------------5---3-----2----2--2-----|
    D|-7-x--5-x--3-x--3-x--7-x--5-x--5h7---------7-------8------------------------------------------------------|
    A|----------------------------------------------------------------------------------------------------------|
    E|----------------------------------------------------------------------------------------------------------|
    
    e|-1-0--5--------------------8--8-6-8--------3/5--5/3--3p0-0h1-|
    B|--------5-------5--------6----6-6-
  • TODO EL ESQUEMA ES IGUAL.
    TIENE ALGUNAS VARIACIONES Q UDS MISMOS PUEDEN IMPROVISAR
    
    
    G-------------------------------------
    D-------------------------------------
    A---5-5-5-5-5-5-5--0-3-4-5---15-16-17-
    E-------------------------------------
    
    G-------------------------------------
    D--------5-5--------------------------
    A---3-3-------3-----------------------
    E-------------------------------------
    
    G-------------------------------------
    D-------------------------------------
    A--1--1-1--0--1----1-1-1-1-1-0-1---3--
    E-------------------------------------
    
    G-------------------------------------
    D-------------------------------------
    A-------------------------------------
    E---1--1--1---------------------------
    
    THROUGH THE COURSE OF AN EMBRACE
    OUR SISTERS FELT A STRIKING HAND
    THEIR FEAR WAS RAISED BY THE LIGHT OF DAY
    THEIR QUIET RAGE SLEEPS WITH THEM TONIGHT
    
    AND THEY SAY...
    
    WE HAVE A REASON TO BAN OUR HEART
    WE HAVE A REASON TO CHANGE OUR MIND
    
    SISTER MIDNIGHT, SISTER MOON
    LIKE ME SO MUCH DON
  • C: crash 
    S: splash
    H: hi-hat (X: abierto, x: medio cerrado)
    t: tacho
    T1: tom 1
    T2: tom 2
    B: bombo 
    a: apoyatura
    
    INTRO
    T |--oo--o--------------------o|
    T1|----------aaaooo------------|
    T2|------------------aaao------|
    Ch|----------------------------|
    B |------------------------oo--|
    
    C |--------------------------------------|
    S |--------------------------------------|
    H |-----------------------------------X--|
    T |--oo-o-------------o----o-o-o-o-o--o--|
    T1|--------------------------------------|
    T2|----------aaao-o-o-o------------------|
    Ch|--------------------------------------|
    B |--------------------------------------|
    
    ESTROFA
    C |---------------------|
    S |---------------------|
    H |-x--xx-x--X-xx-------|
    T |-------o-----o-------|
    B |-o-------------------|
    
    
    En las oartes de los cortes, hace algo asi.
    Fijate q cada silaba cae justo en la nota.
        
        We have a   rea    son
           Sis ter  mid    night  
        Oooo   oooo  u      o
    C |-----------
  • +
    ¡Colabora con nosotros!
    Envíanos tu versión de esta canción
  • Tutorial
    HD
    Explicado - Como tocar "Sisters" de Divididos en el bajo tutorial#120
    6:48

Letra de Sisters
Through the course of an embrace
Our sisters felt a striking hand
Their fear was raised by the light of day
Their quiet rage sleeps with them tonight
We have a reason to ban our heart
We have a reason to change our mind
Through the course of an embrace
Our sisters felt a striking hand
Their fear was raised by the light of day
Their quiet rage sleeps with them tonight
We have a reason to ban our heart
We have a reason to change our mind
Sister midnight, sister moon
Like me so much don't think I'll see them soon




[Sisters chords][Sisters cifra]
© LaCuerda.net · aviso legal · privacidad · es · en · pt · contacto