Tablatura para Bajo de Divididos: Spaghetti del rock
Conexión · Inscripción
Letras y Acordes
Pantalla Completa
Imprimir
Versión Texto
Añadir Favorito
Otras Versiones

Mostrar Diagramas
Desfile Automático
Formato del Texto


Spaghetti del rock(BAJ)

Divididos

calidad:
divi0457
AUTOR: Diego Arnedo, Ricardo Mollo
ALBUM: Narigon del Siglo, Yo Te Dejo Perfumado en la Esqu (2000)
Enviado por Clodi
Esta es mi version de spaghetti del rock
si no le agarran al ritmo pueden verlo aca
http://www.youtube.com/watch?v=F44DXDsARjY
          (esta tal cual)

Verso:
G---------------------------------------------
D------9-------9/---------6-------------4-----
A--7-----9-7-6---------4----4------2-2--------
E---------------------------------------------

G---------------------------------------------
D---------------------------------------------
A-------------------------6----6-7------------
E-----5---5-5---4-5-7---7---7-----------------

Pre-EstribillO:
G-------------------------------------------
D------------------------------------------2veces
A--------------7-4---------------6-9--------
E-----5----5-4-----5-7-----7-6-7------------

G---------------------------------------------------------
D---------------------------------------------------------
A--------------7-4-----------6---6h7--7-----9h11--9-7-----
E-----5----5-4-----5-7-----7---7--------------------------


Estribillo:
   re  mon  tar...
G------------------------------------------------------------
D-------------------------------4---------------------------
A---7--------4..--------------4---4-----------7-------------
E-------7--------------2-2--2----------5-5--5---5-5---------

      solo hara..       entender
G---------------------------------------
D--------------------------------4------
A------------4..---------------4---4----
E--5-4-7----------------2-2--2----------

 que ayer no es hoy
G--------------------------------------
D--------------------------------------
A---------7----------------------------
E--5-5--5---5-----4..----2-4-5---------

 que hoy es hoy
G------------------------------------
D------------------------------------
A---------7--------------------------
E--5-5--5---5-----4..----2-----------

 y que no soy actor de lo que fui
G---------------------------------------------------------
D---------------------------------------------------------
A--------------7-4-----------6---6h7--7-----9h11--9-7-----
E-----5----5-4-----5-7-----7---7--------------------------
Este fichero es trabajo propio de su transcriptor y representa su interpretación personal de la canción. El material contenido en esta página es
para exclusivo uso privado, por lo que se prohibe su reproducción o retransmisión, así como su uso para fines comerciales.

© LaCuerda.net · Aviso Legal · Privacidad