Acordes de Guitarra » C »Charly García » El amor espera (Tab)

El amor espera
Charly García

Letras, Acordes y Tabs para Guitarra, Bajo y Ukulele

  •  Dsus4     D     Dsus4 D Dsus4 D
    Me siento sólo, lindo, joven,
    Dsus4 D Dsus4 D Dsus4 D Dsus4 D Dsus4 D
    viejo, triste, loco, nuevo, viejo y usado.
    
    Me siento lejos, cerca, fuera, linda,
    fea, loca, fuera, vieja y usada.
    
    Y si el teléfono no suena
    en el medio de una reunión privada.
    Es que la cinta ésta cansada de escuchar
    siempre las mismas pelotudas pavadas.
    
    G      F     D
    Y el amor espera.
    G      F     D
    Y el amor espera.
    G      F     D
    Y el amor espera.
    G      F     A
    
  • Intro-A (Dsus4-D)
    
    Guitarra 1 y 2
    E--3-3-3-3-2-3-2-3-2-3-2-3-2-3-2-3-2-3-2-3-2-3-3-2h3p2---------/
    B------------------------------------------------------3~------/
    G--------------------------------------------------------------/
    D---------------------------|x2|-------------------------------/
    A--------------------------------------------------------------/
    E--------------------------------------------------------------/
    
    Guitarra 1 y 2
    E--3--3--2-3-2-3-2-3-2-3-2-3-2-3-2-3-2-3-2-3-3-2h3p2-----------/
    B----------------------------------------------------3~--------/
    G--------------------------------------------------------------/
    D---------------------------|x2|-------------------------------/
    A--------------------------------------------------------------/
    E--------------------------------------------------------------/
    
    Intro-B (G5 F5 D5)
    
    
  • +
    ¡Colabora con nosotros!
    Envíanos tu versión de esta canción

Letra de El amor espera
Me siento sólo, lindo, joven,
viejo, triste, loco, nuevo, viejo y usado.
Me siento lejos, cerca, fuera, linda,
fea, loca, fuera, vieja y usada.
Y si el teléfono no suena
en el medio de una reunión privada.
Es que la cinta ésta cansada de escuchar
siempre las mismas pelotudas pavadas.
Y el amor espera.
Y el amor espera.
Y el amor espera.
Y el amor espera.
Yo hago el muerto
para ver quién me llora, para ver quién me ha usado.
Yo me hago el diablo
porque sabe mas por viejo que lo que aprende del diablo.
Y si el teléfono no suena
en el medio de una reunión privada.
Es que la cinta está cansada de escuchar
siempre las mismas pelotudas pavadas.
Y el amor espera.
Y ya es primavera,
y la mesa, cera,
y la vela, nada.
'Why don´t we sing this song all together'
Open Your mind...
Pero si resbalas y te dejas caer,
Pero si tus alas no te cortan los pies.
Todo el mundo sabe que no puedo vivir sin vos.
Somos como peces que están fuera del mar,
fuimos tantas veces hacia el mismo lugar.
Todo el mundo quiere, todo el mundo quiere olvidar.
Pero si resbalas y no te caes, mi amor.
Pero si tus alas no se queman al sol.
Todo el mundo sabe que no puedo vivir sin vos.
Somos como peces que están fuera del mar,
fuimos tantas veces hacia el mismo lugar.
Todo el mundo quiere, todo el mundo quiere olvidar.
SAY NO MORE!!!!!




[El amor espera chords][El amor espera cifra]
© LaCuerda.net · aviso legal · privacidad · es · en · pt · contacto
DINAMICO