Tablatura para Bajo de Caifanes: los dioses ocultos
Conexión · Inscripción
Letras y Acordes
Pantalla Completa
Imprimir
Versión Texto
Añadir Favorito
Otras Versiones

Mostrar Diagramas
Desfile Automático
Formato del Texto


los dioses ocultos(BAJ)

Caifanes

calidad:
caif0327
AUTOR: Saul Hernández
ALBUM: El Diablito (1990)
Enviado por Martin
Intro:

G:------------------------------------
D:------------------------------------
A:--7\0-------0--5/7--0-------0--5/7--
E:-------5/8-------------5/8----------

Fase 1.

G:----------------------------------------------
D:---------------------------------5-4-2222222--
A:-------------------3333333--------------------
E:--3333333--5555555---------3333---------------

G:-------------------------------------------------------
D:-------------------------------------------------------
A:--3333333----------5555555--------------------3333333--
E:----------3333333-----------3333333--5555555-----------

G:----------------------------------------
D:--------5-4--2222222--------------------
A:----------------------3333333-----------
E:--3333-------------------------3333333--

G:--------------
A:--------------
A:--5555555--0--
E:--------------

Fase 2.

G:--------------------------------------
D:--------------------------------------
A:--0-00--0-00--3-33--3-33--0-00--0-00--  2 x
E:--------------------------------------

Se Repite Fase 1.

Fase 3.

G:----------------------
D:----------------------
A:--0-2~--2-3~--3-2~-0--  2 X
E:----------------------

Repites Fase 1. En Solo.

Final.

G:----------
D:----------
A:--5-3-2~--
E:----------

Espero Que Les Guste!!!!!!!!!!!

Comentarios Favor De Mandarme Un E-Mail.

O Me Pueden Escribir A Mi Otro E-Mail
(www.romobakd@atame.org).
Este fichero es trabajo propio de su transcriptor y representa su interpretación personal de la canción. El material contenido en esta página es
para exclusivo uso privado, por lo que se prohibe su reproducción o retransmisión, así como su uso para fines comerciales.

© LaCuerda.net · Aviso Legal · Privacidad