Acordes de Guitarra » C »Caifanes » Heridos (Tab)

Heridos
Caifanes

  • Letra y Acordes
    Am     Dm7     F     x2
    
    
    Am                  Dm
    Dame un poco de tus manos,
                 Bb                  G
    acércame al abismo y suelta mi dolor
    Am          Dm7
    Acompaña el ruido
                Bb                    G
    mudo sonido vivo de un recuerdo herido.
    
    
            Bb             Am           Dm
    Que solitario y desgarrado veo tu cuerpo
           Bb            Am         Dm
    y melancólico me derramo en tus dedos.
    
    
    (Dm dura 2 tiempos más)
    
  • Letra y Acordes
    Am, F, Am, F
    
    Am                   F
    Dame un poco de tus manos
                  D#m
    Acercame al abismo
                  G
    Y suelta mi dolor
    
    
    Am            F
    Acompaña el ruido
                  D#m
    Mudo sonido vivo
                      G
    De un recuerdo herido
    
    D#m
    Qué solitario
           Am             Dm
    
  • Tablatura
       Am                                                           |
    e|-----------------------------|----|                           |
    B|-----------5----8-8-8-6-5-5~-|----|                           |
    G|--------5---7-5--------------|-x2-|                           |
    D|-/7~---7-7-------------------|----|                           |
    A|-----------------------------|----|                           |
    E|-----------------------------|----|                           |
                                                                      x2
                                                                     /
       F                                                            |
    e|-----------------------------|-----------------------------|  |
    B|-----------5----8-8-8-6-5-5~-|-----------------------------|  |
    G|--------5---7-5--------------|----5----7h5------5----7h5---|  |
    D|-/7~---7-7-------------------|-/7---7--------/7---7------7-|  |
    A|-----------------------------|-----------------------------|  |
    E|-----------------------------|-----------------------------|  |
                                                                    /
    
    
    Am                  F
    
  • +
    ¡Colabora con nosotros!
    Envíanos tu versión de esta canción
  • Tutorial
    HD
    INTRO
    Como tocar HERIDOS en guitarra - Caifanes [Tutorial Rockstars]
    2:04

Letra de Heridos
Dame un poco de tus manos,
acércame al abismo y suelta mi dolor
Acompaña el ruido
mudo sonido vivo de un recuerdo herido.
Que solitario y desgarrado veo tu cuerpo
y melancólico me derramo en tus dedos.
(Dm dura 2 tiempos más)
Si estás herida por esta vida
siente el divino rescate de tu pasion.
Si estás herido por este olvido
invoca el beso salvaje de tu corazón.
Arráncame esta niebla
y sopla en mi camino, quiero ver donde estoy.
Aléjame la noche
que no veo mis manos, las quiero ver volar.
Debilitado te busco entre sueños
abatido me quedo herido.
(Dm dura 2 tiempos más)
Si estás herida por esta vida
siente el divino rescate de tu pasion.
Si estás herido por este olvido
invoca el beso salvaje de tu corazón.
Si estás herida por esta vida
siente el divino rescate de tu pasion.
Si estás herido por este olvido
invoca el beso salvaje de tu corazón.
de tu corazón
de tu corazón
de tu corazón



© LaCuerda.net · aviso legal · privacidad · contacto