Acordes de Guitarra » C »Caifanes » la Célula que explota (Tab)

la Célula que explota
Caifanes

Letras, Acordes y Tabs para Guitarra, Bajo y Ukulele

  • F#m                     G
        Hay veces que no tengo ganas de verte;
    F#m                          G
        Hay veces que no quiero ni tocarte;
    A                                 Bm
      Hay veces que quisiera ahogarte en un grito,
    A                 Bm
      Y olvidarme de esa imagen tuya,
    G    A        Bm
    Pero no me atrevo.
     
    F#m                           G
        Hay veces que no dejo de sonarte;
    F#m                       G
        De acariciarte hasta que ya no pueda;
    A                    Bm
      Hay veces que quisiera morir contigo;
    A             Bm
      Y olvidarme de toda materia,
    G    A             F G F G    
    
  • F#m                        G
     Hay veces que no tengo ganas de verte;
    F#m                       G
     hay veces que no quiero ni tocarte;
    A                          Bm
     hay veces que quisiera matarte en un grito,
    A           Bm    
     y olvidarme de esa imagen tuya,
      G    A       Bm  
     pero no me atrevo.
    
     
    F#m                     G
     Hay veces que no dejo de so~arte;
    F#m                        G
     de acariciarte hasta que ya no pueda;
    A                          Bm     
     hay veces que quisiera morir contigo;
    A                  Bm
     y olvidarme de toda materia,
    
  • Guitarra 1                    Bm                        Bm
    I---5-5--5-5---3-3----2----0--2---0-0--2-2/3---3~--2-0--2--I
    I---7-7--7-7---5-5---3-3--2-2-3---2-2--3-3/5--5~---3-2--3--I
    I-----------------------------4-------------------------4--I
    I-----------------------------4-------------------------4--I
    I-----------------------------2-------------------------2--I
    I----------------------------------------------------------I
    
    Guitarra 2                          D
    I---9--9---9--9----7-7---5-5---3-3--2---I
    I---10-10--10-10---8-8---7-7---5-5--3---I
    I-----------------------------------2---I
    I-----------------------------------0---I
    I---------------------------------------I
    I---------------------------------------I
    
    Guitarra 1                    Bm
    I---5-5--5-5---3-3----2----0--2---I
    I---7-7--7-7---5-5---3-3--2-2-3---I
    I-----------------------------4---I
    
  • Gt1                         Bm                        Bm
    I---5-5--5-5---3-3----2----0--2---0-0--2-2/3---3~--2-0--2--I
    I---7-7--7-7---5-5---3-3--2-2-3---2-2--3-3/5--5~---3-2--3--I
    I-----------------------------4-------------------------4--I
    I-----------------------------4-------------------------4--I
    I-----------------------------2-------------------------2--I
    I----------------------------------------------------------I
    
    Gt2                                D
    I---9--9---9--9----7-7---5-5---3-3--2---I
    I---10-10--10-10---8-8---7-7---5-5--3---I
    I-----------------------------------2---I
    I-----------------------------------0---I
    I---------------------------------------I
    I---------------------------------------I
    
    Gt1                         Bm
    I---5-5--5-5---3-3----2----0--2---I
    I---7-7--7-7---5-5---3-3--2-2-3---I
    I-----------------------------4---I
    
  • INTRO
    G|--------|---------|--------|--------|------------|
    D|--------|---------|--------|--------|------------|
    A|2-------|4-5--4-2-|--------|4-5-----|------------|
    E|-2-5-7--|---------|2-2-5-7-|----5-7-|-2-2-5-2-7--|
    
    INICIA LA CANCION
    G|--------|---------|--------|--------|------------|
    D|--------|---------|--------|--------|------------|
    A|--------|---------|--------|--------|------------|
    E|2-------|2-3------|3-2-----|2-3-----|5-----------|
    
    G|--------|---------|-----4-----4-6-2-4-|
    D|--------|---------|----4--4-5---------|
    A|--------|4--5-----|--5----------------|
    E|5-7-----|-----5---|7------------------|
    
    G|--------|-----4----------|-------|----4-------|
    D|--------|--4---5-4-------|-------|--4--5-4----|
    A|--4-7-4-|-5-------5-4----|-4-7-4-|-5------5-4-|
    E|2------2|3-----------5-2-|2-----2|3----------5|
    
    G|------4---7-9-11-9-7-6---|------|----4-----|
    D|-----4-------------------|------|-0-4------|
    A|----5--------------------|-7--0-|2---------|
    E|5--7---------------------|5--2--|----
  • Para los que la pidieron
    Esta Completa desde el inico al Final......
    
    G||-----------------------|--------------------------||
    D||-----------------------|--------------------------||
    A||-----------------------|--------------------------||
    E||-----------------------|--------------------------||
    
    G||-----------------------|--------------------------||
    D||-----------------------|--------------------------||
    A||-----------------------|--------------------------||
    E||------------7----------|-(7)\---------------------||
    
    G||-----------------------|--------------------------||
    D||-----------------------|--------------------------||
    A||-----------------------|--------------------------||
    E||-----------------------|--------------------------||
    
    G||-----------------------|--------------------------||
    D||-----------------------|--------------------------||
    A||--------7\2----2-------|-----2------------2---4---||
    E||------------------2----|--2------------2----------||
    
    G||----
  •  Disfrutala... y recuerda agarrar bien los tiempos...
     
                   INTRO x2
      Bm           Bm           D            Bm 
    G|------------|------------|------------|-----(9)----|
    D|------------|------------|------------|-------(9)--|
    A|7-----------|7s2---2--2-4|5---5---5-4-|2v-------(9)|
    E|------------|---2-2--2---|-5-5--5-----|------------|
                                                 ARMONICOS
                                                 NATURALES 
     ( Estrofas 1 y 2 )
      F#m          G            F#m          G           
    G|------------|------------|------------|------------|
    D|------------|--------(9)-|------------|------------|
    A|------------|------------|------------|------------|
    E|2-----------|3-----------|2-----------|3-----------|
                          Ar.N
      A            Bm           A            Bm  
    G|------------|------------|------------|----4--46----|
    D|------------|------------|------------|---4-45--77s9|
    A|------------|2--------4-5|------------|2s5-
  • Armonico: *
    Slide o arrastre: / ó \
    Ligado ascendente: h(hammer)
    Ligado descendente: p(pull off)
    Vibrato: ~
    Dejar sonando: [-----]
    
    G. |-------------|
    D. |-------------|
    A. |--------12\2-|
    E. |-------------|
    
    ----------|----------|--------|--------|-----------|---------|-------|
    ----------|----------|--------|--------|-----------|---------|-------|
    2-------0-|2------4--|5[------|-----]4-|2--------0-|2------4-|5[-----|
    -----0----|----------|--------|--------|------2----|---------|-------|
    
    ------|----------------|-----4*-------||------|-----|-----|-----5*-------|
    ------|----------------|--------4*----||------|-----|-----|---5*---5*----|
    ----0-|2-----------0---|2----------4*-||------|-----|-----|----------5*--|
    ------|-----2----2---2-|--------------||2-----|-----|3----|--------------|
    
    -----|-----|------|------|-------|------|-------|-----------|-----------|
    -----|-----|------|------|-------|------|-------|-----------|-----------|
    -----|-----|------|------|0------|------|2------|----4--
  •   La forma de tocar esta cancion en el teclado es muy
      sencilla el intro va ligado
       Las notas de arriba se tocan con la derecha y las de
      abajo con la izquierda
        todos son el la 5 octava a exepcion de si
    
         INTRO
    
         D                                      Bm
        la -la -la -la -sol-sol-fa#-fa#- mi- mi-re
        fa#-fa#-fa#-fa#- mi- mi- re- re-do#-do#-si
    
    
        D
        mi- mi-fa#-fa#-sol-sol
       do#-do#- re -re- mi-mi
    
    
                Bm
        fa#-mi -re
         re-do#-si
    
    despues sique el teaclado asiendo esto
    do_do_do_do_do_do_do_do_do_do sostenidos los dos
    la la la la la la la la la la
    
    si_si_si_si_   la_la_la                 sol sol sol
    sol sol sol    fa fa fa sotenidos       mi  mi mi
    
           F#
         Hay veces que no tengo
                     G
         ganas de verte
           F#
         hay veces que no quiero
                  C
         ni tocarte
           F#
         hay veces que quisiera
                           G
         ahogarte en un grito
           F#
         y olvidarme de esa
    
         imagen tuya
          G   A    
  • +
    ¡Colabora con nosotros!
    Envíanos tu versión de esta canción

Letra de la Célula que explota
Hay veces que no tengo ganas de verte;
hay veces que no quiero ni tocarte;
hay veces que quisiera matarte en un grito,
y olvidarme de esa imagen tuya,
pero no me atrevo.

Hay veces que no dejo de so~arte;
de acariciarte hasta que ya no pueda;
hay veces que quisiera morir contigo;
y olvidarme de toda materia,
pero no me atrevo.
(mismos acordes)
Hay veces que no se lo que me pasa;
ya no puedo saber que es lo que pasa adentro;
somos como gatos en celo;
somos una celula que explota,
y esa no la paras, no la paras.




[la Célula que explota chords][la Célula que explota cifra]
© LaCuerda.net · aviso legal · privacidad · es · en · pt · contacto