Acordes de Guitarra » C »Caifanes » El año del Dragón (Tab)

El año del Dragón
Caifanes

Letras, Acordes y Tabs para Guitarra, Bajo y Ukulele

  • Em
    Si el año del dragón
    
    Fuera mortal,
    G              F#m                  Em
    Mas allá de la verdad no habrá pasión,
    G              F#m                  Em
    Mas allá de la verdad no habrá pasión.
    
    Em
    Si el olvido es tu creencia,
                     
    Dejame olvidarte.
    G              F#m          Em
    El misterio es mudo, es mágico,
    G              F#m          Em
    El misterio es mudo, es mágico.
    
    Am           Bm    
    SI LA sombra es
    
  • B-|-9--|---------9--|--9/12/13-9--|----------9---|--9<-9--|
    G-|-9--|-9h12/13-9--|--9/12/13-9--|--9h12/13-9---|--9<-9--|
    D-|-9--|------------|-------------|--------------|-----9--|
    A-|----|------------|-------------|--------------|--------|
    E-|----|------------|-------------|--------------|--------|
    
    Este es el intro...empieza con las dos guitarras al mismo tiempo
    tocando la quinta E, y esos son los cuatro riffs que van al principio
    en el ultimo, tienes que aflojar las cuerdas(bending)de todos modos
    tienes que oir el disco, para que escuches donde va cada riff.
    
    
    Verso 1
    
    Gtr1
       
    e-|--------------|---------------|---------------|----------------|
    B-|-9-9--9-9-9-9-|--9-9--9-9-9-9-|--9-9--9-9-9-9-|--9-9--9-9-9-9--|
    G-|-9-9--9-9-9-9-|--9-9--9-9-9-9-|--9-9--9-9-9-9-|--9-9--9-9-9-9--|
    D-|-9-9--9-9-9-9-|--9-9--9-9-9-9-|--9-9--9-9-9-9-|--9-9--9-9-9-9--|
    
  • e-|-----------------------|---------------------|
    B-|-----------------------|---------------------|
    G-|--5--x-x--5--x-x--5--x-|-4--x-x--4--x-x--4--x|
    D-|--x--x-x--x--x-x--x--x-|-x--x-x--x--x-x--x--x|(X4)
    A-|--2--x-x--2--x-x--2--x-|-2--x-x--2--x-x--2--x|
    E-|-----------------------|---------------------|
    
    Guitarra 2(Alejandro Marcovich)
    e-|------|------------|--7/8------|------------|--8T------|
    B-|------|------------|--7/8------|------------|--8T------|
    G-|--9/--|------------|--5/6---9--|------------|--6T---9--|
    D-|--9/--|-----10--9~-|--4/5---9--|-----10--9~-|--5T---9--|
    A-|------|--/7--------|-----------|--/7--------|----------|
    E-|------|------------|-----------|------------|----------|
    
    
    VERSO  1  (0:13)
    Si el Año del Dragon...
    
    Guitarra 1 (Saul)
    
  • Afinación estándar
    
    Intro
    
    G I--------------------------------------
    D I--------------------------------------  Se repite 2
    A I-7--5----7----7----0--7---0--7---0-7--      veces
    E I---7-------------7------7------7------
    
    Verso
    
    Si el año del dragón ....
    
    
    G I--------------------------------------
    D I--------------------------------------  2 veces
    A I-7--5----7----7----0--7---0--7---0-7--
    E I---7-------------7------7------7------
    
    Mas allá del altar no habría pasión
    
    G I------------------
    D I------------------
    A I------------------
    E I-3-3-3-3-2-2-2-2--
    
    Verso
    
    Pre coro
    
    Si la sombra es tu aliado en la distancia
    
    G I-------------------------------------
    D I-------------------------------------
    A I-------------------------------------
    E I-5-5-5-5--7-7-7-7--8-8-8-8-7-7-7-7----
    
    No hay que creer que por humano estas salvado
    
    G I------------------------------------
    D I------------------------------------
    A I------------------------------------
    E I-5-5-5-5--7-7-7-7-8-8-8-8-10-10-10-10
    
  • +
    ¡Colabora con nosotros!
    Envíanos tu versión de esta canción

Letra de El año del Dragón
Si el año del dragón
Fuera mortal,
Mas allá de la verdad no habrá pasión,
Mas allá de la verdad no habrá pasión.
Si el olvido es tu creencia,

Dejame olvidarte.
El misterio es mudo, es mágico,
El misterio es mudo, es mágico.
Tu único aliado en la distancia,
No hay que creer
Que por humano estas salvado
Del anima que sangra en ti,
Del anima que sangra en ti.
Si la noche es tu planeta,
No le niegues protección.
Mas allá del miedo esta la paz,
Mas allá del miedo esta la paz.
Las ratas son
De carne y hueso, y sudan sangre
Igual que ayer
Lo único que vivo es lo que sientes
Del anima que sangra en ti,
Del anima que sangra en ti.

Las ratas son
De carne y hueso, y sudan sangre
Igual que ayer
Lo único que vivo es lo que sientes
Del anima que sangra en ti,
Del anima que sangra en ti.




[El año del Dragón chords][El año del Dragón cifra]
© LaCuerda.net · aviso legal · privacidad · es · en · pt · contacto