Acordes de Guitarra » C »Caifanes » Hasta Morir (Tab)

Hasta Morir
Caifanes

  • Letra y Acordes
    Am                  E7
    No creas que por estar sentado aqui
    Am                 E7                  Am E7
    No voy a poder correr hacia ti. No, no.
    Am                  E7
    No creas que por estar amarrado asi
    Am                  E7
    No voy a poder abrazarte a ti.
    
    
             Am           E7  
    Hasta morir. Hasta morir.
             Am           E7  
    Hasta morir. Hasta morir.
     
    
    Am                  E7
    No creas que por estar encerrado aqui
    Am                   E7
    No estoy pensando en ir por ti;
    
  • Tablatura
     (El ligado va como " * ".)
    
       Semi-harmonico (varias veces)
    
    E--X-12-X-X-X-12-X-X-X-12---/--15/sl-17-15-------------------------
    B--X-13-X-X-X-13-X-X-X-13---/----------------17/sl-15-13*15*13-----
    G--X-14-X-X-X-14-X-X-X-14---/--------------------------------------
    D---------------------------/--------------------------------------
    A---------------------------/--------------------------------------
    E---------------------------/--------------------------------------
    
    -------------------------12-12-X-----
    ------------------15-----13-X--------
    --14-------------15--17-------14-X---
    -----16^-16-16-----------------------
    -------------------------------------
    -------------------------------------
    
    
                     CORO: hasta morir.... (varias veces)
    E--------------------------------------------------------------------------------
    B--------------------------------------------------------------------------------
    G--------9--7--9----9--7--9----9--7--9----9--7--9---------
  • Tablatura
     INTRO [Am]
    
    e:I-12-----12-----12-------12--I
    B:I-13-----13-----13-------13--I
    G:I-14-----14-----14-------14--I
    D:I-14-----14-----14-------14--I
    A:I----------------------------I
    E:I----------------------------I
    
    e:I-12----15s17s15-12-------------------------------------------------------------I
    B:I-13-----------------15-13--15p12-----------------15~--13-12~--13-13-15s17------I
    G:I-14------------------------------12----12--14s16-------------------------14s\--I
    D:I-14---------------------------------14-----------------------------------------I
    A:I-------------------------------------------------------------------------------I
    E:I-------------------------------------------------------------------------------I
    
       Am
     
    e:I-12-----12-----12-------12--I
    B:I-13-----13-----13-------13--I
    
  • Tab p/Bajo
    Intro:
    
    A:-------0-0--0-0------------0-0--0-0---------------
    E:--3/5------------0-0--0-0------------0-0--0--12\--
    
    Tocas esta parte cuando dice ...llevarte lejos muy lejos...
    
    A:-----0-----
    E:--0-----0--
    
    A:--0-0--0-0--3--------------5--0-0--0-0--3---------------
    E:---------------0-0--0-0--3-----------------0-0--0--12\--
    
    Luego tocas esto ...no creas...
    
    D:-----------------3/7--
    A:--0~------0~----------
    E:------0~------0-------
    
    D:-----------5-----------------------5--------------
    A:--0-0--0-3-----------5----0-0--0-3-----------5----
    E:--------------0-0--0---3--------------0-0--0---3--
    
    A:--0-0--0-2-3---------5----0-0--0-2-3---------5----
    E:--------------0-0--0---3--------------0-0--0---3--
    
    D:---------------------------------------------2--
    A:--0-0--0-2-3---------5----0-0--0-2-3------------
    E:--------------0-0--0---3--------------0-0--0----
    
    D:-----------5-----------------------5--------------
    A:--0-0--0-3-----------5----0-0--0-3-----------5----
    E:------
  • Tab p/Bajo
      El bajo en esta rola solo participa en el coro
    
      Hasta morir...
      Am     Em7    Am     Em7
    G|------------------------------|
    D|------------------------------|
    A|00--00--------00--00----------|
    E|-------00--00--------00-0-2s0-|
    
    ...y llevarte lejos muy lejos hasta que nadie se acuerde de ti...
                  Em7    Am  Em7
    G|----------------------------------------------------------|
    D|----------------------------------------------------------|
    A|-------------------0--------------------------------------|
    E|-------------0----------0---------------------------------|
    
      Preludio
      Am      Em7      Am      Em7
    G|---------------------------------|
    D|------2----------------2---------|
    A|00-00----------5-00-00-----------|
    E|--------00-0-3-----------00-12s0-|
    
      Hasta morir...
      Am       Em7      Am       Em7
    G|------------------------------------|
    D|------------------------------------| esto va junto con el solo 
    A|00-0-2-3------5---00-0-2-3------5---| guitarra
    
  • +
    ¡Colabora con nosotros!
    Envíanos tu versión de esta canción

Letra de Hasta Morir
No creas que por estar sentado aqui
No voy a poder correr hacia ti. No, no.
No creas que por estar amarrado asi
No voy a poder abrazarte a ti.
Hasta morir. Hasta morir.
Hasta morir. Hasta morir.

No creas que por estar encerrado aqui
No estoy pensando en ir por ti;
y llevarte lejos muy lejos,
hasta que nadie se acuerde de ti.

No creas que por estar desnudo asi
no voy a pasearme de puntitas en tu jardin.
No creas que esta navaja es para mi,
la traje para rascarte a ti.


Hasta morir. Hasta morir.
Hasta morir. Hasta morir.



© LaCuerda.net · aviso legal · privacidad · contacto