Acordes de Guitarra » C »Caifanes » Estás Dormida (Tab)

Estás Dormida
Caifanes

Letras, Acordes y Tabs para Guitarra, Bajo y Ukulele

  • Intro: B
    
    E        Esus             E   Esus
       Cada segundo sin tu piel
    C#m
       me va secando la voz
    E        Esus            E   Esus
       cada ladrido en tu pared
    C#m
       va marchitando mi amor
    G#m                       C#m
       y estoy buscándote a ciegas
    G#m                    C#m
       en un sepulcro sin puertas.
    
    A                               C#m
       Y aunque te escondas todo el día
              C
       la verdad
       B                        A
    
  • E        Esus             E   Esus
       Cada segundo sin tu piel
    C#m
       me va secando la voz
    E        Esus            E   Esus
       cada ladrido en tu pared
    C#m
       va marchitando mi amor
    G#m                       F#m
       y estoy buscándote a ciegas
    G#m                    F#m
       en un sepulcro sin puertas.
    
     F#m/G#m/A                      C#m
       Y aunque te escondas todo el día
              C
       la verdad
       B                        A
       Yo se bien que estas dormida
                                 C#m
    
  • E|-------------------|
    B|-----5-7-9-7-5-----|
    G|-6-8-----------8-6-|
    D|-------------------|
    A|-------------------|
    E|-------------------|
    
    
    Intro:
       B
    e|-------------------------|
    B|-4--4---2--2--5--5--4--4-| x3
    G|-4--4---4--4--4--4--4--4-|
    D|-------------------------|
    A|-------------------------|
    E|-------------------------|
    
    
    E         A             E   A Riff1
       Cada segundo sin tu piel
    
  •             B
    E-----------------------------------------|
    B-----------4--4---2--2--5--5--4--4-------| x3
    G-----------4--4---4--4--4--4--4--4-------|
    
    E          Esus           E
       Cada segundo sin tu piel
                              E--------------------------
                              B---------7--9--7----------
                              G-9--8--9---------9--8--6--
    C#m
       me va secando la voz
    E           Esus           E
       cada ladrido en tu pared
                              E--------------------------
                              B---------7--9--7----------
                              G-9--8--9---------9--8--6--
    C#m
       va marchitando mi amor.
    
    
  •             B
    E-----------2--2--2----2--2--2--2--2------------------------------
    B-----------4--4--4----2--5--5--5--4------------------------------
    G-----------4--4--4----4--4--4--4--4------------------------------
    D-----------4--4--4----4--4--4--4--4------------------------------
    A-----------2--2--2----2--2--2--2--2------------------------------
    E-----------2--2--2----2--2--2--2--2------------------------------
    
    VERSO I    E          A              E
             CADA    SEGUNDO    SIN   TU    PIEL              
    E----------0----------0--------------0--------------------------
    B----------0----------2--------------0--------------------------
    G----------1----------2--------------1--------------------------
    D----------2----------2--------------2--------------------------
    A----------2----------0--------------2--------------------------
    E----------0----------0--------------0--------------------------
    
    RIFF.1
    E--------------0--2--4---2--0--------------------------------
    B------2---4-------------------4---2-------------------------
    
  • Ver. Sabo Romo
    
    TUNNING STANDAR [E A D G]
    
    Tab por Pablo Grosskelwing.
    
    ---------------------------
    
    Intro
    
    G --------------------------
    D ---7/9--7--6--------6-----
    A --------------9--7-9--9~--
    E --------------------------
    
    G --------------------------------------
    D ---9--7--6---------6--9--7--6---------
    A ------------9--7-9-------------9--7-9-
    E --------------------------------------
    
    
    Verso
    
    [E]
    
    G ----9~-----9------9----------------
    D ----------------------------6------
    A --7----777----777----777-7-9-9-7-6-
    E -----------------------------------
    
    [C#m]
    
    G ---------------------------------------------
    D ---------------------------------------------
    A -4--4--4~---2--4--4-4---4--4--4~---2--4--4-4/
    E ----------4-----------4----------4-----------
    
    [E]
    
    G ----9~-----9------9----------------
    D ----------------------------6------
    A --7----777----777----777-7-9-9-7-6-
    E -----------------------------------
    
    [C#m]
    
    G ---------------------------------------------
    D -----------------------------
  • +
    ¡Colabora con nosotros!
    Envíanos tu versión de esta canción
  • Tutorial
    HD
    Como tocar ESTAS DORMIDA en guitarra - Caifanes [Tutorial Somos Posers]
    5:46

Letra de Estás Dormida
Cada segundo sin tu piel
me va secando la voz
cada ladrido en tu pared
va marchitando mi amor
y estoy buscándote a ciegas
en un sepulcro sin puertas.
Y aunque te escondas todo el día
la verdad
Yo se bien que estas dormida
con los recuerdos de otra vida
donde yo...
Uh uh uh, uh uh uh, uh uh uh uh uh
Los días pasan y aqui estoy
junto a tu tumba sin sol
si tu te vas, a dónde voy?
no me obedecen mis pies.
Quieren que vaya al desierto
quieren que baje al infierno.
Y aunque te escondas todo el día
la verdad
Yo se bien que estas dormida
con los recuerdos de otra vida
donde yo...
Uh uh uh, uh uh uh, uh uh uh uh uh
Y aunque te escondas todo el día
la verdad
Yo se bien que estas dormida
con los recuerdos de otra vida
donde yo...
Uh uh uh, uh uh uh, uh uh uh uh uh
Final:
Dedicada Para mi Flor De Loto: Gre Montaño!!! :D




[Estás Dormida chords][Estás Dormida cifra]
© LaCuerda.net · aviso legal · privacidad · es · en · pt · contacto