Acordes de Guitarra » C »Caifanes » la Bestia Humana (Tab)

la Bestia Humana
Caifanes

  • Letra y Acordes
         F#m
    No creas que no me doy cuenta
    De las cosas que no me dices,
          E
    De las formas que me has cambiado,
    De las cosas que me has robado.
    
         F#m
    No creas que no me doy cuenta
    De que miras a otros cuerpos,
         E
    De que juegas con otras sombras,
    Y te esfumas cuando obscurese.
     
         F#m 
    No creas que no me doy cuenta 
    Que tu lengua es una rapiña,
             E
    Que tus huesos me destrozan,
    Que tu cuerpo me incinera. 
    
  • Tablatura
    e-----7----------10----------9----------7-----|
    B---5---5------8----8------7---7------6---6---|
    G-4-------4--7--------7--6-------6--5-------5-|
    D---------------------------------------------|
    A---------------------------------------------|
    E---------------------------------------------|
    
    e-----7----------10----------9------------12--|
    B---5---5------8----8------7---7----------12--|
    G-4-------4--7--------7--6-------6--5-----13--|
    D---------------------------------------------|
    A---------------------------------------------|
    E---------------------------------------------|
    
    E
    No creas q no me he dado cuenta
    e-------------------------------------|
    B-------------------------------------|
    G-------------------------------------|
    D-------------------------------------|
    
  • +
    ¡Colabora con nosotros!
    Envíanos tu versión de esta canción

Letra de la Bestia Humana
No creas que no me doy cuenta
De las cosas que no me dices,
De las formas que me has cambiado,
De las cosas que me has robado.
No creas que no me doy cuenta
De que miras a otros cuerpos,
De que juegas con otras sombras,
Y te esfumas cuando obscurese.

No creas que no me doy cuenta
Que tu lengua es una rapiña,
Que tus huesos me destrozan,
Que tu cuerpo me incinera.
No creas que no me doy cuenta
Que contigo me estoy pudriendo,
Que contigo me da lepra,
Que necesito un exorcismo.
Me estas enseñando ha ser una bestia humana,
Me estas enseñando ha ser una bestia humana.
No creas que no me doy cuenta
De las cosas que no me dices,
De las formas que me has cambiado,
De las cosas que me has quitado.

No creas que no me doy cuenta
Que contigo me estoy pudriendo,
Que contigo me da lepra,
Que necesito un exorcismo.

Me estas enseñando ha ser una bestia humana...
B/G#m B/G#m B/G#m
B/G#m B/G#m B/G#m



© LaCuerda.net · aviso legal · privacidad · contacto