Acordes de Guitarra » C »Caifanes » Debajo de tu Piel (Tab)

Debajo de tu Piel
Caifanes

Letras, Acordes y Tabs para Guitarra, Bajo y Ukulele

  •         x7-A           x16-E  
    e------------------|-----------------------------------------------|
    B-------2-5-3-2----|-----------------------------------------------|
    G-2-2-4---------4--|----1------------------------------------------|
    D------------------|-----------------------------------------------|
    A------------------|-----------------------------------------------|
    E------------------|-----------------------------------------------|
    
    A                 E|--5/7-5---------|
    Si pudiera ver    
    A
    una lagrima
                 G           A
    mientras te beso entre incendios
             G          A
    te abrazaria para subirnos con el humo
    
    F
    Abajo de tu piel hay esmeraldas conquistadas
    Em
    
  • E -----------------
    B -----------------
    G -------6-9-7-6---
    D -----7---------7-
    A ---7-------------
    E -5---------------
    
    Ya despues empieza la rola así:
    
    A
    Si pudiera ver
    
    Una lágrima
                G             A
    Mientras te beso entre incendios
             G          A    
    Te abrazaría para salirnos con el humo.
    
    Coro:
    F
    
  • El bajo en esta rola esta un poco complicado y te
    recomiendo escucharla un par de veces o mas para que
    encuentres los adornos correctos ya que este tab no 
    esta correcto a un 100 porciento.
    
    
      Si pudiera...
      A             
    G|------------|----14-16---|------------|------14-16----|
    D|------------|------------|------------|---------------|
    A|0-----------|0-0------12s|0-0---0-0-0-|0-0-12-----12s5|
    E|------------|------------|------------|---------------|
    
      G                          A   
    G|-------------|------------|------14-16-18|-----14-16-14|
    D|----5--------|----5-------|--------------|---14--------|
    A|-------------|------------|0-0-12--------|x-0----------|
    E|3--3-3-3-----|3--3-3------|--------------|-------------|
    
      Abajo de tu piel...
      F             Em
    G|----5------5-|----4-7s9-7-------||
    D|3--3---3--3--|2--2-------10-7-5-||  Dos veces
    A|-3------3----|-2----------------||
    E|-------------|------------------||
    
      Intro...
      A
    G|------14-16-18-|
    D|----1
  • +
    ¡Colabora con nosotros!
    Envíanos tu versión de esta canción

Letra de Debajo de tu Piel
Si pudiera ver
una lagrima
mientras te beso entre incendios
te abrazaria para subirnos con el humo
Abajo de tu piel hay esmeraldas conquistadas
encima de mi piel hay una alfombra entre tus pies
abajo de tu piel yo resucito y me derrito
encima de mi piel te guardo el aire que no hace da~o
X4
Ven acercate
si pudieramos escupir cometas
le ganariamos al tiempo
a la magia al destino
a la distancia al olvido
Abajo de tu piel hay esmeraldas conquistadas
encima de mi piel hay una alfombra entre tus pies
abajo de tu piel yo resucito y me derrito
encima de mi piel te guardo el aire que no hace da~no




[Debajo de tu Piel chords][Debajo de tu Piel cifra]
© LaCuerda.net · aviso legal · privacidad · es · en · pt · contacto