Acordes de Guitarra » C »Caifanes » la Vida no es Eterna (Tab)

la Vida no es Eterna
Caifanes

Letras, Acordes y Tabs para Guitarra, Bajo y Ukulele

  • Em        D                  C    B7
    Mira como te ha dejado esta vida
    Em        D                    C     B7
    Antes que pienses que vas a envejecer.
    Em         D                     C    B7
    Mira como te ha dejado esta historia
    Em           D         C           B7
    Antes que pienses que vas a enloquecer.
    
    G                          F
    Mira que la vida no es eterna;
    G                        F
    En cualquier momento nos olvida.
    
    Em         D          C           B7 
    Mira como se te cae todita la cabellera
    Em         D           C           B7
    Antes que pienses que vas a enloquecer.
    Em         D              C           B7
    Mira como se te escurre todito el corazon;
    
  • Gm        A#                 D#        D
    Mira como te ha dejado esta vida
    Gm        A#                 D#        D
    Antes que pienses que vas a envejecer.
    Gm        A#                 D#        D
    Mira como te ha dejado esta historia
    Gm        A#                 D#        D
    Antes que pienses que vas a enloquecer.
    
    
    CORO:
    A#                          D#
    Mira que la vida no es eterna;
    A#                        D#
    En cualquier momento nos olvida.
    
    SOLO:
    Gm  A#   D#  D
    
    
    
  • Intro: La Vida No Es Eterna
    guitarra 1 x6
    
    e---3----1--1---|
    b-3---3---------|
    g---------------|
    d---------------|
    a---------------|
    e---------------|
    
    guitarra 2 x6
    e-------3--------3---3-|
    b-3-3-3----3-3-3---3---|
    g----------------------|
    d----------------------|
    a----------------------|
    e----------------------|
    
    y se repite luego x17 mientras la guitarra 1 
    toca el verso 3 x4 
    
    verso 1 muchas veces '...mira como te a dejado este historia...'
    
    e------------------------------------------------------|
    b-3-3--3-3-3--3-3--3-3-3-3--3-3-3--3-3-3-3-3-3--3-3-3--|
    g------------------------------------------------------|
    d------------------------------------------------------|
    a------------------------------------------------------|
    e------------------------------------------------------|
    
    verso 2  '...mira que la vida no es eterna...'
    x4
    e----------1-------------|
    b---4----3-----3---4--4--|
    g-3---3------3---3-------|
    d------------------------|
    a------------
  • e-------3--------3---3-|
    b-3-3-3----3-3-3---3---|   
    y luego esto
    e-------------------------------------|
    b---3---1-1---1---3-1-3-3-1-1---------|
    g-0---0-----0---0-------------2-3-3-2-|
    
    
    D#m             C# 
    Mira como te ha dejado
             B     Bb7
    Esta vida
    Antes que pienses, que
    Vas a envejecer.
    
    Mira como te ha dejado
    Esta vida
    Antes que pienses, que
    Vas a envejecer.
    F# 
    
  • +
    ¡Colabora con nosotros!
    Envíanos tu versión de esta canción

Letra de la Vida no es Eterna
Mira como te ha dejado esta vida
Antes que pienses que vas a envejecer.
Mira como te ha dejado esta historia
Antes que pienses que vas a enloquecer.
Mira que la vida no es eterna;
En cualquier momento nos olvida.
Mira como se te cae todita la cabellera
Antes que pienses que vas a enloquecer.
Mira como se te escurre todito el corazon;
Y tu, y tu, y tu no haces nada.

Mira que la vida no es eterna;
En cualquier momento nos olvida.




[la Vida no es Eterna chords][la Vida no es Eterna cifra]
© LaCuerda.net · aviso legal · privacidad · es · en · pt · contacto