Acordes de Guitarra » C »Caifanes » la Llorona (Tab)

la Llorona
Caifanes

Letras, Acordes y Tabs para Guitarra, Bajo y Ukulele

  • Am       E
    Am       E
    Am       Am
    Dm       Dm
    Gm
    A#   F   Am
    
    VERSO 1:
    
    Am
    Desde el fondo de la tierra,
    Am
    fantasmas humanos se buscan,
    Dm
    algunos olvidan frío,
    Dm
    otros nunca se encuentran
    Gm
    hacen temblar la vida,
    A#               F            Am
    
  • Intro Am Em Am
    
     Am
    Desde el fondo de la tierra,
    
    fantasmas humanos se buscan
     Dm
    Algunos olvidan frios, otros nunca se encuentran
     Gm                     Eb                Bb        Am
    hacen temblar la vida, tiemblan sueños, tiembla amor
     
    Coro:
    Bb               Am
    Ay, no quiero amarte llorona, 
    Bb            Am
    ay no quiero llorar contigo
    Bb         Am
    Ay dejame ver tu piel
    Bb          Am
    Ay dejame ser tu piel,
    
  • Am            
    Desde el fondo de la tierra,
    
    Fantasmas humanos se buscan.
    Dm
    Algunos olvidan frio,
    E
    Otros nunca se encuentra.
    G              
    Hacen temblar la vida;
    Am
    Tiemblan sueños,
    E            Am
    Tiembla amor.
    
    Dm                     Am
    -Ay!, no quiero amarte, Llorona.
    Dm                  Am
    -Ay!, no quiero llorar contigo.
    G                   Am
    
  • B:------1-1------------1-1-----------0-0----------3-3------
    G:-----2---2----------2---2---------1---1--------1---1-----
    D:-2--------------2-------------2------------2-------------
    A:-0--------------0-------------2------------2-------------
    E:------------------------------0------------0-------------
    
    2ªparte del intro(aqui entra el solo introductorio):
     ----------x2--------------    --------------x2------------
    e:-------0--------------0----I--------1--------------1-------
    B:------1-1------------1-1---I-------3-3------------3-3------
    G:-----2---2----------2---2--I--2---2---2------2---2---2-----
    D:-2--------------2----------I--0--------------0-------------
    A:-0--------------0----------I-------------------------------
    E:---------------------------I-------------------------------
    
    
    e:-------3--------------3-------------3----------3-3-----0---
    B:------3-3------------3-3-----------3-3---------3-3-----1---
    G:-----0---0----------0---0---------0---0--------0-0--2--2---
    D:--------------------------------------------0-------2------
    
  • B:-1----1-1-------1----1-1------0----0-0-------0----0-0------
    G:-2---2---2------2---2---2-----1---1---1------1---1---1-----
    D:-2--------------2-------------2--------------2-------------
    A:-0--------------0-------------3--------------3-------------
    E:-0--------------0-------------0--------------0-------------
    DESPUÉS CON GUITARRA ELECTRICA:
    e:-----------------------------------------------------------
    B:-----------------------------------------------------------
    G:-----------------------------------------------------------
    D:--6/7-7-9/10--9-7-9/10-9-7-------6/7-7-9/10--9-7-9/10-9-7--
    A:-----------------------------------------------------------
    E:-----------------------------------------------------------
    
    E:--------------------- X2  ----------------------------
    B:---------------------     ----------------------------
    G:--7/10///7-----------     ----------------------------
    D:----------7--5--7--7-     --6/7-7--7-9/10--9-7-7/8-7-5
    A:--------------8------     ----------------------------
    E:---------------------     ----------------------------
    
    
  • Aqui les va la introduccion de una de mis 
    canciones favoritas.
    
    Intro: con distorcion
    
    e|------------------------------------------|
    B|------------------------------------------|
    G|------------------------------------------|
    D|-7-77-9/10-9-7-10-7~--7-77-9/10-9-7-10-7~-|
    A|------------------------------------------|
    E|------------------------------------------|
    
    e|------------------------------------------|
    B|------------------------------------------|
    G|--7-10-7--------------7-10-7--------------|
    D|---------7-5---7-7~----------7-5---7-7~---|
    A|-------------8-------------------8--------|
    E|------------------------------------------|
    
    e|---------------------|
    B|---------------------|
    G|---------------------|
    D|-5-5-5-7/8-7-5-8-5~--|
    A|---------------------|
    E|---------------------|
    
    e|----------------------------|
    B|----------------------------|
    G|----------------------------|
    D|-5-5---8-8-8----------------|
    A|-------------8-8-8-10-8-7~--|
    E|--------------
  • e----0-0-0-0-0--0-0-0-0---0-0-0-0-0---0-0-0-0-0--------
    B----1-1---1-1--1-1---1---0-0---0-0---3-3---3-3--------
    G----2-2---2-2--2-2---2---1-1---1-1---1-1---1-1--------
    D----2-2---2-2--2-2---2---2-2---2-2---2-2---2-2--------
    A--0----------0-----------2-2---2-2---2-2---2-2--------
    E-----------------------0-----------0------------------
                 Am                      E / E7          2 Veces
    
    Aqui se marca solo el ritmo, pero esto se toca 2 veces por cada acorde
    e----0-0-0-0-0------1-1-1-1-1------3-3-3-3-3------0-0-0-0-0---0-0-0-0-0---
    B----1-1---1-1------3-3---3-3------3-3---3-3------0-0---0-0---3-3---3-3---
    G----2-2---2-2------2-2---2-2------3-3---3-3------1-1---1-1---1-1---1-1---
    D----2-2---2-2----0----------------5-5---5-5------2-2---2-2---2-2---2-2---
    A--0-------------------------------5-5---5-5------2-2---2-2---2-2---2-2---
    E--------------------------------3--------------0-----------0-------------
          Am X2           Dm  X2          Gm X2                E / E7
    
    
    Guitarra 1 (Eléctrica)
    Con una distorsión pesada, vibrato y wha wha, para hacer un efecto de violín
    
  • +
    ¡Colabora con nosotros!
    Envíanos tu versión de esta canción

Letra de la Llorona
Desde el fondo de la tierra,
Fantasmas humanos se buscan.
Algunos olvidan frio,
Otros nunca se encuentra.
Hacen temblar la vida;
Tiemblan sueños,
Tiembla amor.
-Ay!, no quiero amarte, Llorona.
-Ay!, no quiero llorar contigo.
-Ay!, dejame ver tu piel.
-Ay!, dejame ser tu piel.
Dejame ayudarte,
Na'mas dime como,
Y asi sera...
Desde el fondo de la tierra...
Más allá de la existencia
Flotan almas solas
Todas crucificadas
Hombres y mujeres lloran
Por un amor que nunca tuvieron.
-Ay!, no quiero amarte, Llorona...
Transcrito por Romeo Márquez
Corecciones por Sergio Alejandro y el intro por Raúl Erazo (raulerazo@usa.net)




[la Llorona chords][la Llorona cifra]
© LaCuerda.net · aviso legal · privacidad · es · en · pt · contacto