Tablatura para Bajo de Caifanes: los dioses ocultos
Conexión · Inscripción
Letras y Acordes
Pantalla Completa
Imprimir
Versión Texto
Añadir Favorito
Otras Versiones

Mostrar Diagramas
Desfile Automático
Formato del Texto


los dioses ocultos(BAJ)

Caifanes

calidad:
caif0325
AUTOR: Saul Hernández
ALBUM: El Diablito (1990)
Enviado por Paul
Este es el tab para bajo de Los Dioses Ocultos.
Esto se toca antes de que cante
'Por que no puedo resignarme...'
(V 1)    x2
g--------------------------------|
d--------------------------------|
a---------3-3-3-----0-0----------|
e-0--1-1---------3-------0-0-0---|
(V 2)
'Seran los dioses ocultos...'
g-------------------------------------------------|
d-------------------------------------------------|
a-----------------6-6-6-6-6-6-6-6-3-3-3-3-3-3-3-3-|
e-3-3-3-3-3-3-3-3---------------------------------|

g---------0---------------------------------------|
d------------4-2-2-2-2-2-2-2-0--------------------|
a------------------------------3-3-3-3-3-3-3-2----|
e-3-3-3-3-----------------------------------------|

g----------------------------------|
d-----------------0-0-0-0-0-0-0-0--|
a----------------------------------|
e-3-3-3-3-3-3-3-3------------------|
(V 3)   x2
Antes de que cante, 'Por que no puedo desgararme...'
g--------------------------------------------------|
d------------------------2-------------------------|
a------------------3-3-3---3-3-3-3-3-0-0-0-0-0-0-0-|
e-1--1-1-1-1-1-1-1---------------------------------|

g----------------------|
d---2-----2-----2------|
a-0--------------------|
e-----0-0---0-0----1---|
(V 4)
Antes del solo de guitarra
g-----------------------------------------|
d-----------------------------------------|
a-2----3-----2----0-----2-----3-----2-----|
e--------------------------------------0--|

g--------------------------------------|
d--------------------------------------|
a-0-0-0-0-0-0-0-0-0-0-0-0-0---0-2-0----|
e---------------------------0----------|
Durante el solo de guitarra se toca el (V 2)

(V 5)
para finalizar
g-0-------|
d---4-2---|
a---------|
e---------|

eso es tode manden me sus dudas o comentarios a
caifan_4315@yahoo.com
Este fichero es trabajo propio de su transcriptor y representa su interpretación personal de la canción. El material contenido en esta página es
para exclusivo uso privado, por lo que se prohibe su reproducción o retransmisión, así como su uso para fines comerciales.

© LaCuerda.net · Aviso Legal · Privacidad