Tablatura para Guitarra de Caifanes: los dioses ocultos
Conexión · Inscripción
Letras y Acordes
Pantalla Completa
Imprimir
Versión Texto
Añadir Favorito
Otras Versiones

Mostrar Diagramas
Desfile Automático
Manipular Acordes
Formato del Texto


los dioses ocultos(TAB)

Caifanes

calidad:
caif0324
AUTOR: Saul Hernández
ALBUM: El Diablito (1990)
Enviado por Paul
este es el solo tienen que oir la cancion para que salga perrona

e---3-3-3--3/5--3-2-0--0---0-0-2-0-------------1---------12^14-10|
b---3-3-3--3/5--3-2-0--1---1-1-3-1--3----0-0-0-0--3-1-0-1--------|
g-----------------------------------4----0-0-0----4-2-0-2--------|
d----------------------------------------------------------------|
a----------------------------------------------------------------|
e----------------------------------------------------------------|

e---3-5-5-3--5-9-9-5-3-3---------0-----3-8-8-7-5-3-0-2-3-5-7-7---|
b---3-3-3-3----------------0-3-3---3-----------------------------|
g------------------------2-----------0---------------------------|
d----------------------------------------------------------------|
a----------------------------------------------------------------|
e----------------------------------------------------------------|

e---7-5-3-2-3---0---5-10-10-8-7-5-5-3--7-|
b-------------3---3--------------------8-|
g----------------------------------------|
d----------------------------------------|
a----------------------------------------|
e----------------------------------------|

cualquier dudas o comentarios mandanmelos a caifan_4315@yahoo.com
Este fichero es trabajo propio de su transcriptor y representa su interpretación personal de la canción. El material contenido en esta página es
para exclusivo uso privado, por lo que se prohibe su reproducción o retransmisión, así como su uso para fines comerciales.

© LaCuerda.net · Aviso Legal · Privacidad