Tablatura para Bajo de Caifanes: los dioses ocultos
Conexión · Inscripción
Letras y Acordes
Pantalla Completa
Imprimir
Versión Texto
Añadir Favorito
Otras Versiones

Mostrar Diagramas
Desfile Automático
Formato del Texto


los dioses ocultos(BAJ)

Caifanes

calidad:
caif0323
AUTOR: Saul Hernández
ALBUM: El Diablito (1990)
Enviado por €L
Esta es la transcripción de la versión de la canción:
"Dioses Ocultos" que apareció en el Album:"El Diablito"
de Caifanes.

Esta canción sigue sonando en los conciertos y en la
actualidad Marco Rentería, Bajista de Jaguares
la toca de esta manera

E:8----------8----------8----------8--88888--
D:-------------------------------------------
G:-------------------------------------------
D:-------------------------------------------

E:--5----1--1-1--1--1-1--1-------------------
A:---7/0-------------------3--3-3--3--3-3-3-2
G:-------------------------------------------
D:-------------------------------------------


E:0--0-0--0--0-0----0-0----------------------
A:---------------0-2----2-0--0-0--0--0-0-----
G:---------------------------------------3---
D:-------------------------------------------

E:1--1-1--1--1-1--1--------------------------
A:-------------------3--3-3--3--3-3-3-2------
G:-------------------------------------------
D:-------------------------------------------

E:0--0-0--0--0-0----0-0----------------------
A:---------------0-2----2-0--0-0--0--0-0-----
G:---------------------------------------3---
D:-------------------------------------------



Coro:

E:3-3-3-3-3-5-5-5-5-5-5------------3-3-2-0---
A:----------------------3-3-3-3-3-3----------
D:-------------------------------------------
D:-------------------------------------------

E:0-0-0-0------------------------------------
A:-------3-3-3-3-3-2-2-2-2-2-----------------
D:-------------------------------------------
G:-------------------------------------------

E:3-3-3-3-3-5-5-5-5-5-5------------3-3-2-0---
A:----------------------3-3-3-3-3-3----------
G:-------------------------------------------
D:-------------------------------------------

E:0-0-0-0------------------3-3-3-3-3-2-0-----
A:-------3-3-3-3-3-5-5-5-5-------------------
D:-------------------------------------------
G:-------------------------------------------

Un saludo a toda la raza de El Salvador y en especial
Beatriz Alcaine agradecerle por permitir expresarnos en
"La Luna Casa Y Arte"
Este fichero es trabajo propio de su transcriptor y representa su interpretación personal de la canción. El material contenido en esta página es
para exclusivo uso privado, por lo que se prohibe su reproducción o retransmisión, así como su uso para fines comerciales.

© LaCuerda.net · Aviso Legal · Privacidad