Acordes de Guitarra » B »Los Bunkers » Me muelen a palos (Tab)

Me muelen a palos
Los Bunkers

Letras, Acordes y Tabs para Guitarra, Bajo y Ukulele

  • Bm           D          G            Em
    Salgo cada amanecer y parece que esta todo mal,
    seria tan absurdo hablar de cosas que no cambiaran
    largas caminatas doy, cada día para trabajar
    pese a todo yo estoy bien pero luego se me va a pasar
    uso el mismo pantalón y la misma cara desde ayer
    callo sin una razón, solamente para complacer
    quien me puede asegurar que me dices toda la verdad
    no me des la misma mano con la que no me dejas ganar
    
    CORO
    Bm           D       G Em
    me muelen a palos,
    Bm               D        G Em
    me pegan por la espalda
    me muelen a palos
    y ya no hace falta que me den una vez mas
    
    no me vuelvas a decir que recoja lo que te sobro
    no me puedo acostumbrar a mirarte y no sentir rencor
    
  • E-------------------------------|
    B-------------------------------|
    G-------------------------------|
    D-------------------------------|
    A--2-2-2--4-5-------------------|
    E-----------------3-3-3-3-3-0-0-|
    
    Salgo cada amanecer y parece que esta todo mal,
    seria tan absurdo hablar de cosas que no cambiaran
    largas caminatas doy, cada día para trabajar
    SIm
    pese a todo yo estoy bien pero luego se me va a pasar
    
    uso el mismo pantalón y la misma cara desde ayer
    callo sin una razón, solamente para complacer
    quien me puede asegurar que me dices toda la verdad
    SIm
    no me des la misma mano con la que no me dejas ganar
    
    CORO
    
  • E--------------------------------|
    B--------------------------------|
    G--------------------------------|
    D--------------------------------|
    A--2-2-2-2-2-2-4-5---------------|
    E------------------3-3-3-3-3-0-0-|
    
    esos son las notas reales y van durante el verso tambien, en el coro
    los acordes suenan mejor en riff:
    
    Verso:
    Salgo cada amanecer y parece que esta todo mal,
    seria tan absurdo hablar de cosas que no cambiaran
    largas caminatas doy, cada dia para trabajar
    pese a todo yo estoy bien pero luego se me va a pasar
    uso el mismo pantalon y la misma cara desde ayer
    callo sin una razon, solamente para complacer
    quien me puede asegurar que me decices toda la verdad
    no me des la misma mano con la que no me dejas ganar
    
    
  • Bueno aqui esta el mejor tema de Los Bunkers, en realidad es
    muy sencillo...
    Esta tablatura esta 100% correcta
    (si no un 98%)
    
    INTRO: (suena en el verso tambien)
    
    G-------------------------------
    D-------------------------------
    A-2-2-2-4-5---------------------
    E-----------3-3-3-3-3-0-0-0-0---
    
    G-------------------------------|
    D-------------------------------|
    A-222222-4-5--------------------| X3
    E------------3-3-3-3-3-0-0-0-0--|
    (aqui empieza: "Salgo cada amanecer....")
    (con las mismas posturas anteriores)
    
    CORO(Me muelen a palos...)
    
    G----------------|
    D----------------|
    A-2--4-5---------|
    E---------0--3---|
    
    G----------------|
    D---------2--5---|
    A-2--4-5---------|
    E----------------|
    (Caen piedras...)
    
    G----------------|
    D----------------|
    A-2---5----------|
    E---------3---0--|(fijense bien cuando suena)
    
    FINAL:
    G-----------------------------------|
    D-----------------------------------|
    A-0h2222222222-0h222222222----------|
    E-----------------------------0-----|
    
    eso es todo espero qu
  • +
    ¡Colabora con nosotros!
    Envíanos tu versión de esta canción

Letra de Me muelen a palos
Salgo cada amanecer y parece que esta todo mal,
seria tan absurdo hablar de cosas que no cambiaran
largas caminatas doy, cada día para trabajar
pese a todo yo estoy bien pero luego se me va a pasar
uso el mismo pantalón y la misma cara desde ayer
callo sin una razón, solamente para complacer
quien me puede asegurar que me dices toda la verdad
no me des la misma mano con la que no me dejas ganar
me muelen a palos,
me pegan por la espalda
me muelen a palos
y ya no hace falta que me den una vez mas
no me vuelvas a decir que recoja lo que te sobro
no me puedo acostumbrar a mirarte y no sentir rencor
nunca hemos ganado nada ni tampoco vamos a ganar
pese a todo yo estoy bien pero luego se me va a pasar
me muelen a palos,
me pegan por la espalda
me muelen a palos
y ya no hace falta que me den una vez mas
caen piedras sobre mi,
caen piedras sobre ti,
caen piedras sobre mi
me muelen a palos
y ya no hace falta que me den una vez mas
no hace falta que me den una vez mas,
una vez mas, una vez mas, una vez mas, una vez mas




[Me muelen a palos chords][Me muelen a palos cifra]
© LaCuerda.net · aviso legal · privacidad · es · en · pt · contacto