Acordes de Guitarra » B »Los Bunkers » Miño (Tab)

Miño
Los Bunkers

Letras, Acordes y Tabs para Guitarra, Bajo y Ukulele

  • C,Am x 2
    C                   Am
    Fueron las canchas, donde corri.
    C                   Am
    El picaporte de la puerta que no habri.
    Dm       C            G
    El miedo a la oscuridad
    Dm          C              G
    y un viejo amor por conquistar
    C                         Am
    Sentada, sola y triste con la cruel verdad,
    C                        Am
    la mano se hice amiga de la soledad
    Dm        C            G
    Es evidente que el perdon,
    Dm            C          G
    de los recuerdos se aburrio.
    
    Coro 1
    F               Am   C              C7
    
  • C,Am x 2
    C                   Am
    Fueron las canchas, donde corri.
    C                   Am
    El picaporte de la puerta que no habri.
    Dm       C            G
    El miedo a la oscuridad
    Dm          C              G
    y un viejo amor por conquistar
    C                         Am  
    Sentada, sola y triste con la cruel verdad,
    C                        Am
    la mano se hice amiga de la soledad
    Dm        C            G           
    Es evidente que el perdon,
    Dm            C          G
    de los recuerdos se aburrio.
    
    Coro 1
    F               Am   C              C7        
    
  • C,Am x 2
    C                   Am
    Fueron las canchas, donde corri.
    C                   Am
    El picaporte de la puerta que no habri.
    Dm       rem/C            G
    El miedo a la oscuridad
    Dm          rem/C              G
    y un viejo amor por conquistar
    C                         Am
    Sentada, sola y triste con la cruel verdad,
    C                        Am
    la mano se hice amiga de la soledad
    Dm        C            G
    Es evidente que el perdon,
    Dm            C          G
    de los recuerdos se aburrio.
    
    Coro 1
    F            re7/fa# DO            DO7
    
  •   Em                C                   G
    e|------------------|-------------------|---7---8-8---7---|
    B|----7---8-8---7---|---8---10-10---8---|-8---8-----8---8-|
    G|*-9---9-----9---9-|-9---9-------9---9-|-----------------|
    D|*-----------------|-------------------|-----------------|
    A|------------------|-------------------|-----------------|
    E|------------------|-------------------|-----------------|
    
    
     *********************
      D                   |
    e|--------------------|  se finaliza así solo la primera vez
    B|---7---10-10-7-8-7--|  luego se toca asi las siguietes tres veces
    G|-8---8-------------*|                  |  |
    D|-------------------*|                  |  |
    A|--------------------|                  |  |
    E|--------------------|                 \    /
                                             \  /
                                              \/
                                 D
    
  • Em                         C                   G
    Tantas                 caras            que tengo olvid--ar
    e|------------------|-------------------|---7---8-8-7--|-----------------------|
    B|----7---8-8-7-----|---8---10-10--8----|-8---8------8-|---7---10-10-7-8-7-----|
    G|--9---9-------9---|-9---9----------9--|--------------|-8---8-----------------|
    D|------------------|-------------------|--------------|-----------------------|
    A|------------------|-------------------|--------------|-----------------------|
    E|------------------|-------------------|--------------|-----------------------|
    
    Em                      C               G                   D
    No hay pa------------labras             sin ponerse a gri--tar.
    e|------------------|-------------------|---7---8-8-7----|-----------------------|
    B|----7---8-8-7-----|---8---10-10--8----|-8---8------8---|---7-10--8--7----------|
    G|--9---9-------9---|-9---9----------9--|----------------|-8-------8--8--10------|
    D|------------------|-------------------|----------------|-----------------------|
    A|------------------|-------------------|----------------|-----------------------|
    E|------------------|-------------------|----------------|-----------------------|
    
    Em                    C                   G                      D
    Se rieron de ti      no pudiste dormir    pero tu propia     vergueza
    
  • C   x-x-x-8-9-9
    Am  x-x-x-8-10-9
    Dm  x-x-x-10-10-10
    G   x-x-x-7-8-7
    F   x-x-x-8-10-10
    D7  x-x-x-7-7-8
    C7  x-x-x-12-13-12
    B   x-x-x-7-8-8
    Bb  x-x-x-10-11-10
    
    Acordes 2da guitarra:(maury duran)
    
    C   x32010
    Am  x02210
    Dm  xx0231
    G   320033
    F   133211
    D7  xx0212
    C7  x32310
    B   x24442
    
  • Intro:
    ------------------------------------------------- X2
    -------------------------------------------------
    -3-3-3-0-3-3-3-3-3-------------------------------
    -------------------5-5-5-0-5-5-5-5-50-------------
    
    Verso:
    Fueron Las Canchas Donde Corrí...
    ------------------------------------------------- X2
    -------------------------------------------------
    -3-3-3-0-3-3-3-3-3-------------------------------
    -------------------5-5-5-0-5-5-5-5-50------------
    
    El Miedo A La Oscuridád...
    ------------------------------------------------- X2
    -------------------------------------------------
    -5-5-5-5-3-3-3-3-3-------------------------------
    -------------------3-3-3-0-3-3-3-3-30------------
    
    Sentada Sola Y Triste Con La Cruel Verdád...
    ------------------------------------------------- X2
    -------------------------------------------------
    -3-3-3-0-3-3-3-3-3-------------------------------
    -------------------5-5-5-0-5-5-5-5-50------------
    
    Es Evidente Que El Perdón...
    ----
  • +
    ¡Colabora con nosotros!
    Envíanos tu versión de esta canción

Letra de Miño
Fueron las canchas, donde corri.
El picaporte de la puerta que no habri.
El miedo a la oscuridad
y un viejo amor por conquistar
Sentada, sola y triste con la cruel verdad,
la mano se hice amiga de la soledad
Es evidente que el perdon,
de los recuerdos se aburrio.
Nadie me esperara, como lo quize ayer.
En las veredas como imagine
si fuese asi la eternidad,
yo no quisiera despertar
Tantas caras que tengo olvidar.
No hay palabras, sin ponerse a gritar.
Se rieron de ti, no pudiste dormir
pero tu propia verguenza
Ya no vives de ti, no supiste morir
por que tu propia tristeza
se incendio
Todos colgados tras del camion
las mismas rejas oxidadas por el sol
El hambre que no conoci
me hizo mucho mas feliz
Lavando a mano dentro de un piano
un cura oculto bautizo a mi hermano
Las cicatrices las guarde
por si no fueras a volver
Nadie me esperara, como lo quize ayer.
En las veredas como imagine
si fuese asi la eternidad,
yo no quisiera despertar
Tantas caras que tengo olvidar.
No hay palabras, sin ponerse a llorar.
Se rieron de ti, no pudiste dormir
pero tu propia verguenza
Ya no vives de ti, no supiste morir
por que tu propia tristeza
se incendioooooooooouuuuuuuuuuooooooooo
Gracias a Ignacio por el mail con la correcion!!!




[Miño chords][Miño cifra]
© LaCuerda.net · aviso legal · privacidad · es · en · pt · contacto