Acordes de Guitarra » B »Los Bunkers » No Me Hables de Sufrir (Tab)

No Me Hables de Sufrir
Los Bunkers

Letras, Acordes y Tabs para Guitarra, Bajo y Ukulele

  • Intro: LAm - SOL  - FA  - MI  x 2
    
    
    LAm    SOL   FA     MI      LAm SOL 
    Ella tiene más de una razón
    FA      MI       REm/REm7+/REm7/REm6
    para pedir perdón, 
           SOL    MI 
    a mi corazón.
    
    LAm    SOL   FA     MI    LAm SOL 
    Ella usa la culpa a su favor
    FA      MI      REm/REm7+/REm7/REm6
    mucho mejor que Dios
             SOL 
    cero compasión
    MI 
    como si nada.
    
    
    
  • ----------------------:ROCK!!---------------------------
    
    Los Bunkers - No me hables de sufrir
    
    Am-G-F-E X2
    
    Am    G    F       E    Am     G
    Ella tiene más de una razón
    F      E       Dm/Dm7 /Dm7/Dm6
    para pedir perdón,
           G      E
    a mi corazón.
    
    Am    G     F       E    Am     G
    Ella usa la culpa a su favor
    F       E       Dm/Dm7 /Dm7/Dm6
    mucho mejor que Dios
            G
    cero compasión
    E
    
  • ---------
    ---------
    ---------
    ---------
    ---------
    --8--7--0
    
    
    
    y los rem raros se tokan asi
    
      REm?   REm7+?   REm7?  REm6?
    
    E  -1-    -1-      -1-    -1-
    B  -3-    -2-      -1-    -0-
    G  -2-    -2-      -2-    -2-
    A  -0-    -0-      -0-    -0-
    D   x      x        x      x
    E   x      x        x      x
    
    
  • e|----------------------------------------------------|
    B|----------------------------------------------------|
    G|---------------------1-2-1-1------------------------| (x2)
    D|---7-7--5-5--3-3-3---2-2-2-2------------------------|
    A|---7-7--5-5--3-3-3---2-2-2-2------------------------|
    E|---5-5--3-3--1-1-1--------------8---7--0------------|
    
    LAm    SOL   FA     MI      LAm SOL 
    Ella tiene más de una razón
    FA      MI       REm/REm7+/REm7/REm6
    para pedir perdón,
           FA    MI 
    a mi corazón.
    
    e|----------------------------------------------------|
    B|----------------------------------------------------|
    G|---------------------1-2-1-1------------------------| (x2)
    D|---7-7--5-5--3-3-3---2-2-2-2------------------------|
    A|---7-7--5-5--3-3-3---2-2-2-2------------------------|
    E|---5-5--3-3--1-1-1--------------8---7--0------------|
    
  • G------------------------------
    D------------------------------
    A------------------------------
    E-5-x-5-3-x-3-1-1-0-8-7-0    X4
    
    G------------------------------------------------------
    D------------------------------------------------------
    A-5-x-5-4-x-4-3-3-2-2-2--------------------------
    E----------------------------0-3-x-3-3-x-3-0-4-5-7
    
    G------------------------------
    D------------------------------
    A------------------------------
    E-5-x-5-3-x-3-1-1-0-8-7-0    X2
    
    G------------------------------------------------------
    D------------------------------------------------------
    A-5-x-5-7-x-7-8-8-5-5-5---------------------------
    E----------------------------0-3-x-3-3-x-3-0-4-5-7
    
    G-----7---------
    D---7--7--------
    A-5------7-7--7
    E-------------7--  X4
    
    
    
    G------------------------------
    D------------------------------
    A------------------------------
    E-5-x-5-3-x-3-1-1-0-8-7-0    X4
    
    G------------------------------------------------------
    D----------------------------------------------------
  • +
    ¡Colabora con nosotros!
    Envíanos tu versión de esta canción

Letra de No Me Hables de Sufrir
Ella tiene más de una razón
para pedir perdón,
a mi corazón.
Ella usa la culpa a su favor
mucho mejor que Dios
cero compasión
como si nada.
Me robó la vida
la dejó escondida
me quitó el aliento
aún así no me pidió perdón
Lam/SolM/FaM/MiM
no me pidió perdón.
En su almohada me encontró el amor
pero partido en dos
muera la ilusión, con su mirada.
Embrujó mis ganas
más de una mañana
me quitó el aliento
y aún así no me pidió perdón.
Me dices que es muy tarde
me dices que es mejor
parece que no sabes
lo que nos guarda el dolor
mejor que no me hables
no me hables de sufrir
el tiempo es implacable
si se trata de ti
Ella usa la culpa a su favor
mucho mejor que Dios
cero compasión.
Me robó la vida
la dejó escondida
y aún así no me pidió perdón.
- LaM/Fa#m/ReM/MiM -
Me dices que es muy tarde
me dices que es mejor
parece que no sabes
lo que nos guarda el dolor
mejor que no me hables
no me hables de sufrir
el tiempo es implacable
si se trata de ti
si se trata de ti
_______________________
Primer single de su aún desconocido disco... esta calentito aún!




[No Me Hables de Sufrir chords][No Me Hables de Sufrir cifra]
© LaCuerda.net · aviso legal · privacidad · es · en · pt · contacto